Catch 22 - It Takes Some Time Chords & Tabs

 

It Takes Some Time Chords & Tabs

Catch 22 Chords & Tabs

Version: 3 Type: Tab 0 ratings
1 star 2 stars 3 stars 4 stars 5 stars
comments

It Takes Some Time Tab

It Takes Some Time
by Catch 22

the ska part throughout the song:
E------------------------------------------------------------------|
B------------------------------------------------------------------|
G------------------------------------------------------------------|
D-----9-x-99-xx-----5-x-55-xx-----9-x-99-xx-----7-x-77-xx----------|
A-----8-x-88-xx-----6-x-66-xx-----8-x-88-xx-----8-x-88-xx----------|
E-----8-x-88-xx-----5-x-55-xx-----8-x-88-xx-----7-x-77-xx----------|


E------------------------------------------------------------------|
B------------------------------------------------------------------|
G------------------------------------------------------------------|
D-----9-x-99-xx-----10-x-1010-xx-----5-x-55-xx-----7-x-77-xx-------|
A-----8-x-88-xx-----8--x-8-8--xx-----6-x-66-xx-----8-x-88-xx-------|
E-----8-x-88-xx-----8--x-8-8--xx-----5-x-56-xx-----7-x-77-xx-------|

[ Tab from: http://www.guitartabs.cc/tabs/c/catch_22/it_takes_some_time_tab_ver_3.html ]
except for:
"takes some time, so bear with me, you're always there with me.."
E------------------------------------------------------------------|
B------------------------------------------------------------------|
G------------------------------------------------------------------|
D-----9-x-99-xx---10-x-1010-xx-----9-x-99-xx-----10-x-1010-xx------|
A-----8-x-88-xx---8--x-8-8--xx-----8-x-88-xx-----8--x-8-8--xx------|
E-----8-x-88-xx---8--x-8-8--xx-----8-x-88-xx-----8--x-8-8--xx------|


the distorted part (it's the same chords, different voicing)
E----8---8---8----------------8---8---8----------------------------|
B----10--10--10-----8---8-----10--10--10----10---10----------------|
G----10--10--10-----10--10----10--10--10----12---12----------------|
D-------------------10--10------------------12---12----------------|
A------------------------------------------------------------------|
E------------------------------------------------------------------|

that's it!
Comments