Catch 22 - Giving Up Giving In Chords & Tabs

 

Giving Up Giving In Chords & Tabs

Catch 22 Chords & Tabs

Version: 2 Type: Tab 0 ratings
1 star 2 stars 3 stars 4 stars 5 stars
comments

Giving Up Giving In Tab

giving up and giving in- catch 22------------------------------------
Tabbed by:joe
Email:
catch is a great band (www.njcatch22.com)
check em out
Tuning:standard


e|------------------------------------------------------------------------------------|
B|------------------------------------------------------------------------------------|
G|------------------------------------------------------------------------------------|
D|--7-5-4-4-4-4-----------------------------------------------------------------------|
A|5-5-3-2-2-2-2-----------------------------------------------------------------------|
E|3-----------------------------------------------------------------------------------|

e|--------------------------------------------------------------------------------|
B|--------------------------------------------------------------------------------|
G|--------------------------------------------------------------------------------|
D|--7-5-7-------------------------------------------------------------------------|
A|5-5-3-5-------------------------------------------------------------------------|
E|3-------------------------------------------------------------------------------|
[ Tab from: http://www.guitartabs.cc/tabs/c/catch_22/giving_up_giving_in_tab_ver_2.html ]
e|-----------------------------------------------------------------------------|
B|-----------------------------------------------------------------------------|
G|-----------------------------------------------------------------------------|
D|5---7------------------------------------------------------------------------|
A|3-5-5-5----------------------------------------------------------------------|

E|--3---3-------------------------------------------------------------------|

e|---------------------------------------------------------------------------|
B|---------------------------------------------------------------------------|
G|---------------------------------------------------------------------------|
D|---------------------------------------------------------------------------|
A|5--------------------------------------------------------------------------|
E|3--------------------------------------------------------------------------|play a bunch of times

e|-----------------------------------------------------------------------------|
B|-----------------------------------------------------------------------------|
G|-----------------------------------------------------------------------------|
D|--7-5-4-----5---7------------------------------------------------------------|
A|5-5-3-2-----3-5-5--5---------------------------------------------------------|
E|3-------------3----3---------------------------------------------------------|outro

figure out the timing and stuff yourself but the chords are right
so enjoy it
Comments