Catch 22 - Giving Up Giving In Chords & Tabs

 

Giving Up Giving In Chords & Tabs

Catch 22 Chords & Tabs

Version: 1 Type: Tab 0 ratings
1 star 2 stars 3 stars 4 stars 5 stars
comments

Giving Up Giving In Tab

Tabbed By: Ryan Gregg
Tuning: Standard

Intro to Giving Up Giving In, my favorite Catch 22 acoustic riff.
I tabbed this in about an hour and I think its mostly right except
it might be missing the occasional base note.

Play with a capo on the first fret.

e|-3---3----2---3p2----3---3-|
B|---3--------------3----3---|
G|---------------------------|
D|--------0---0--------------|
A|----------------------3----|
E|--3------------------------|

e|-----3-----3--------3---3--|
B|---3-----3-----3------3----|
G|---------------------------|
D|---------------------------|
A|-3-----2-----0-------------|
E|-------------------3-3-----|
[ Tab from: http://www.guitartabs.cc/tabs/c/catch_22/giving_up_giving_in_tab.html ]
e|--0---0---2---2---2---2----|
B|----1-------3---3---3------|
G|---------------------------|
D|---------0-0---0---0-------|
A|-3-3-----------------------|
E|------------------------3--|

e|-3---3----2---3p2-----0---0|
B|---3--------------3-----1--|
G|---------------------------|
D|--------0---0--------------|
A|-----------------------3---|
E|--3------------------------|

e|----0---0-3---3---2--3p2---|
B|--1---1-----3------------3-|
G|---------------------------|
D|----------------0---0------|
A|-3---3---------------------|
E|---------3-3---------------|

e|-----3-----3----------3----|
B|---3-----3-----3----3------|
G|---------------------------|
D|---------------------------|
A|-3-----2-----0----3-----2--|
E|---------------------------|

e|---3---------3-----3-----3-|
B|-3-----3---3-----3-----3-3-|
G|---------------------------|
D|---------------------------|
A|-----0---3-----2-----0-----|
E|-------------------------3-|
Comments