Catch 22 - Dear Sergio Chords & Tabs

 

Dear Sergio Chords & Tabs

Catch 22 Chords & Tabs

Version: 1 Type: Tab 0 ratings
1 star 2 stars 3 stars 4 stars 5 stars
comments

Dear Sergio Tab

Catch 22 - Dear Sergio
Tabbed By: Dan Youngstrom
EMail: Wolflogy101@attbi.com
Album: Keasbey Nights


I couldn't find a singe copy of this tab anywhere.
This should give you the idea of the song.
Chords are provided, you figure out the strumming.

Intro / Outro:
|----------|
|--5----6--|
|--6----7--|
|--7----8--|
|----------|
|----------|
[ Tab from: http://www.guitartabs.cc/tabs/c/catch_22/dear_sergio_tab.html ]
Verse:
|--------------------|--------------------|
|--5----6----3----5--|--1----3----1----3--|
|--6----7----4----6--|--2----4----2----4--|
|--7----8----5----7--|--3----5----3----5--|
|--------------------|--------------------|
|--------------------|--------------------|

Chorus:
|--------------------|
|--1----8----6----1--|
|--2----9----7----2--|
|--3----10---8----3--|
|--------------------|
|--------------------|

Post-Chorus
|--------------------|--------------------|-----|
|--1----3----6----8--|--5----3----1----0--|--5--|
|--2----4----7----9--|--6----4----2----1--|--6--|
|--3----5----8----10-|--7----5----3----2--|--7--|
|--------------------|--------------------|-----|
|--------------------|--------------------|-----|

Ska
Comments