Catch 22 - Alone In The Crowd Chords & Tabs

 

Alone In The Crowd Chords & Tabs

Catch 22 Chords & Tabs

Version: 1 Type: Tab 0 ratings
1 star 2 stars 3 stars 4 stars 5 stars
comments

Alone In The Crowd Tab

   
Theres not enough tabs for catch 22, and there a awesome band. So I decided to
tab out there last album "Alone in the Crowd".I did this all by ear,so i know
its not perfect, but it will do. 

1.) Point the Blame

Intro/Verse
e|-6--8---6----10---6---8---8---8-------8----6--8----6---8----6---8--8-------|
B|-6--8---6----10---6---8---8---8-------8----6--8----6---8----6---8--8-------|
G|-7--8---7----10---7---8---9---8-------8----5--8----7---8----7---9--8-------|
D|-8--8---8----10---8---8---10--8-------8----8--8----8---8----8---10-8-------|
A|-8--6---8----8----8---6---10--6-------6----8--6----8---6----8---10-6-------|
E|-6------6---------6-------8----------------6-------6--------6---8----------|
Chorus
e|--6------8--------10-------8-----|
B|--6------8--------10-------8-----|
G|--7------8--------10-------8-----|
D|--8------8--------10-------8-----|
A|--8------6--------8--------6-----|
E|--6------------------------------|
Post Chorus
e|-6---6---8----6-6----8----6---6------8----10--10-10--8-----|
B|-6---6---8----6-6----8----6---6------8----10--10-10--8-----|
G|-7---7---8----7-7----8----7---7------8----10--10-10--8-----|
D|-8---8---8----8-8----8----8---8------8----10--10-10--8-----|
A|-8---8---6----8-8----6----8---8------6----8---8--8---6-----|
E|-6---6--------6-6---------6---6----------------------------|
Bridge
e|----6-----8-------6----8-------6----8----6---8----------|
B|----6-----8-------6----8-------6----8----6---8----------|
G|----7-----8-------7----8-------7----8----7---8----------|
D|----8-----8-------8----8-------8----8----8---8----------|
A|----8-----6-------8----6-------8----6----8---6----------|
E|----6-------------6------------6---------6--------------|

Play Verse During Sax Solo

2.)Sounds Good, But I Don't Know
Intro
e|--5-5----3--3---5-5----1----3------5--1---3---1--5-----------------|
B|--5-5----3--3---5-5----1----3------5--1---3---1--5--6--4-3-4-1-----|
G|--5-5----4--4---5-5----2----4------5--2---4---2--5-----------------|
D|--5-5----5--5---5-5----3----5------5--3---5---3--5-----------------|
A|--3-3----5--5---3-3----3----5------3--3---5---3--3-----------------|
E|---------3--3----------1----3---------1---3---1--------------------|
Verse
e|--5------1-----5---1---5-----1------3------------|
B|--5------1-----5---1---5-----1------3------------|
G|--5------2-----5---2---5-----2------4------------|
D|--5------3-----5---3---5-----3------5--3---5-----|
A|--3------3-----3---3---3-----3------5--3---5-----|
E|---------1---------1---------1------3--1---3-----|
Pre Chorus
e|-1----3-4-3-1-3-4-3----------------|
B|-1----3-4-3-1-3-4-3----------------|
G|-2----4-5-4-2-4-5-4----------------|
D|-3----5-6-5-3-5-6-5----------------|
A|-3----5-6-5-3-5-6-5-------1/-------|
E|-1----3-4-3-1-3-4-3----------------|
Chorus
e|---5------1---------3-------5-------1----3----5-----1----3--1---5--|
B|---5------1---------3-------5-------1----3----5-----1----3--1---5--|
G|---5------2---------4-------5-------2----4----5-----2----4--2---5--|
D|---5------3---------5-------5-------3----5----5-----3----5--3---5--|
A|---3------3---------5-------5-------3----5----5-----3----5--3---3--|
E|----------1---------3---------------1----3----------1----3--1------|

e|---5----5-13-12--8-10-12-----|
B|---5----5-13-12--8-10-12-----|
G|---5----5-13-12--8-10-12-----|
D|---5----5-13-12--8-10-12-----|
A|---3----3-11-10--6-8--10-----|
E|-----------------------------|

3.)It Takes Some Time

e|-5----1----5--3----5---1------5---3------|
B|-5----1----5--3----5---1------5---3------|
G|-5----2----5--4----5---2------5---4------|
D|-5----3----5--5----5---3------5---5------|
A|-3----3----3--5----3---3------3---5------|
E|------1-------3--------1----------3------|

e|-5-10-5--1----|
B|-5-10-5--1----|
G|-5-10-5--2----|
D|-5-10-5--3----|
A|-3-8--3--3----|
E|---------1----|

4.)What Goes Around Comes Around

e|-6--11------------------1-----------------------------3---------|
B|-6--11------------------1-----------------------------3---------|
G|-7--11---------2-3-2----2-----------------------------3---------|
D|-8--11-------3-------3--3-----------------------------3---------|
A|-8--9-----3-------------3--1--4--3-x2-----4--3----4-3-1---------|
E|-6------1---------------1--------------2-------4----------------|
Verse
e|-3---4---4--2--4--3--4---2--1-----3--4-3--2--4----3--4--2-10----|
B|-3---4---4--2--4--3--4---2--1-----3--4-3--2--4----3--4--2-10----|
G|-3---5---3--3--5--3--5---3--2-----3--5-3--3--5----3--5--3-10----|
D|-3---6---3--4--6--3--6---4--3-----3--6-3--4--6----3--6--4-10----|
A|-1---6---1--4--6--1--6---4--3-----1--6-1--4--6----1--6--4-8-----|
E|-----4------2--4-----4---2--1--------4----2--4-------4--2-------|
Pre Chorus
e|-6-2--3--4----6--2---4----6--2--3--4-----6---4--6--4---5--------|
B|-6-2--3--4----6--2---4----6--2--3--4-----6---4--6--4---5--------|
G|-6-3--3--5----6--3---5----6--3--3--5-----6---5--6--5---5--------|
D|-6-4--3--6----6--4---6----6--4--3--6-----6---6--6--6---5--------|
A|-4-4--1--6----4--4---6----4--4--1--6-----4---6--4--6---3--------|
E|---2-----4-------2---4-------2-----4---------4-----4------------|
Chorus
e|--2---4---6--2---4----6-6-5-----|
B|--2---4---6--2---4----6-6-5-----|
G|--3---5---6--3---5----6-6-5-----|
D|--4---6---6--4---6----6-6-5-----|
A|--4---6---4--4---6----4-4-3-----|
E|--2---4------2---4--------------|

5.)Arm To Arm

Intro
e|-4-----8-----8---6---4---6----8-----|
B|-4-----8-----9---8---6---8----8-----|
G|-5-----9----10---8---6---8----8-----|
D|-6----10----10---8---6---8----8-----|
A|-6----10-----8---6---4---6----6-----|
E|-4-----8----------------------------|

Verse
e-4----8----10----8---10---------|
B-4----8----10----8---10---------|
G-5----8----10----8---10---------|
D-6----8----10----8---10---------|
A-6----6----8-----6---8----------|
E-4------------------------------|

e----8---6----8----4---8---------|
B----8---6----8----4---8---------|
G----8---6----8----5---8---------|
D----8---6----8----6---8---------|
A----6---4----6----6---6---------|
E------------------4-------------|

e----10---8--10---8---6---6------|
B----10---8--10---8---6---6------|
G----10---8--10---8---7---6------|
D----10---8--10---8---8---6------|
A----8----6--8----6---8---4------|
E---------------------6----------|

Chorus: 
e--4----1--6--8------------------| 
B--4----1--6--8------------------|
G--5----2--6--8--------6--8------|
D--6----3--6--8--6--3--6--8--6---|
A--6----3--4--6--6--3--4--6--6---|
E--4----1--------4--1--------4---|
 
e--------------------------------| 
B--------------------------------| 
G-----6----8------------6---8--6-|
D-3---6----8----6---3---6---8--6-| 
A-3---4----6----6---3---4---6--4-|
E-1-------------4---1------------| 

Bridge: 
e--------------------------------| 
B--------------------------------|
G-----8------------6-------------| 
D-6---8-----8------6-----6-------| 
A-6---6-----8------4-----6-------|
E-4---------6------------4-------|
 
e------------------------------------------| 
B------------------------------------------|
G--8-------6-------------------------------|
D--8---8---6-----6-6-6-6-6-6-6-66--3-3-3-3-|
A--6---8---4-----6-6-6-6-6-6-6-66--3-3-3-3-|
E------6---------4-4-4-4-4-4-4-44--1-1-1-1-|

e---------------------------------------------------------------------------| 
B---------------------------------------------------------------------------|
G-----------------------------6-6-6-6-6-6-6-6-------------------------------|
D-3-3-3-33--8-8-8-8-8-8-8-88--6-6-6-6-6-6-6-6----6-6-6-6-6-6-6-66----3-3-3--| 
A-3-3-3-33--8-8-8-8-8-8-8-88--4-4-4-4-4-4-4-4----6-6-6-6-6-6-6-66----3-3-3--|
E-1-1-1-11--6-6-6-6-6-6-6-66---------------------4-4-4-4-4-4-4-44----1-1-1--|

e---------------------------------------------------------------------------| 
B---------------------------------------------------------------------------|
G---------------------------------------6-----8b10r8-5h6-5s3----------------|
D-3-3-3-3-33----8-8-8-8-8-8-8-88--------6-----------------------6-6-6-6-6---|
A-3-3-3-3-33----8-8-8-8-8-8-8-88--------4-----------------------6-6-6-6-6---|
E-1-1-1-1-11----6-6-6-6-6-6-6-66--------------------------------4-4-4-4-4---|
[ Tab from: http://www.guitartabs.cc/tabs/c/catch_22/alone_in_the_crowd_tab.html ]
e---------------------------------------------------------------------------|
B---------------------------------------------------------------------------| 
G-------------------------------------6-6-6-6-6-6-6-6-----------------------|
D-6-6-6-3-3-3-3-3-3-3-8-8-8-8-8-8-8-8-6-6-6-6-6-6-6-6-6-6-6-6-6-6-6-6-3-3-3-|
A-6-6-6-3-3-3-3-3-3-3-8-8-8-8-8-8-8-8-4-4-4-4-4-4-4-4-6-6-6-6-6-6-6-6-3-3-3-|
E-4-4-4-1-1-1-1-1-1-1-6-6-6-6-6-6-6-6-----------------4-4-4-4-4-4-4-4-1-1-1-|

e---------------------------------------------|
B---------------------------------------------|
G---------------------------6------6----------|
D-3-3-3-3-3-8-8-8-8-8-8-8-8-6------6-----6----|
A-3-3-3-3-3-8-8-8-8-8-8-8-8-4------4-----6----|
E-1-1-1-1-1-6-6-6-6-6-6-6-6--------------4----|


6.)Guilty Pleasures

e|-------------------------------|
B|-------------------------------|
G|---4-4-4---------8-8-6-6-------|
D|-4-4-4-4---8-4---8-8-6-6-------|
A|-4-2-2-2---8-4---6-6-4-4-------|
E|-2---------6-2-----------------|

e|------------------------------------------------|
B|------------------------------------------------|
G|-----4-6--8-6----4----4--------6------4--6------|
D|--4--4-6--8-6----4----4----6---6------4--6------|
A|--4--2-4--6-4----2----2----6---4------2--4------|
E|--2------------------------4--------------------|

7.)Bloomfield Ave
Intro/Verse
e|------------------------|
B|------------------------|
G|-7-------5------3-------|
D|-7---7---5--5---3--7----|
A|-5---7---3--5---1--7----|
E|-----5------3------5----|
Pre Chorus
e|------------------------|
B|------------------------|
G|-7---5--------3---------|
D|-7---5---5----3---7-----|
A|-5---3---5----1---7-----|
E|---------3--------5-----|
Chorus
e|--------------------------------------------------|
B|--------------------------------------------------|
G|--7--5-----3-------7---5--------3---------3-------|
D|--7--5--5--3--7----7---5----5---3---------3----7--|
A|--5--3--5--1--7----5---3----5---1---------1----7--|
E|--------3-----5-------------3------------------5--|
Outro
e|----------------|
B|----------------|
G|-7--10-12-14----|
D|-x--x--x--x-----|
A|-5--8--10-12----|
E|----------------|

8.)Hard To Impress
e|-----------------------------------------|
B|-----------------------------------------|
G|---7-----8--7-----7----7-7-7--8-8-8-7----|
D|-5-7---5-8--7--5--7--5-7-7-7--8-8-8-7----|
A|-5-5---5-6--5--5--5--5-5-5-5--6-8-6-5----|
E|-3-----3-------3-----3-------------------|

e|------------------------------|
B|------------------------------|
G|-----8--7-3----------8-3-7----|
D|--5--8--7-3--7--5----8-3-7----|
A|--5--6--5-1--7--5----6-1-5----|
E|--3----------5--3-------------|

9.)San Francisco Payphone

e|-9--12-12-12-10-9--9---7--5----------|
B|-10-10-10-10-10-10-10--9--5----------|
G|-9--9--11-10-10-9--7---9--6----------|
D|----------------9--7-----------------|
A|-------------------------------------|
E|-------------------------------------|


e|-------------------------------------|
B|-------------------------------------|
G|-----7-------7-6-7-----7--4--7-------|
D|--7--7--7----7-6-7-7---7--4--7-------|
A|--7--5--7----5-4-5-7---5--2--5-------|
E|--5-----5----------5-----------------|

e|------------------------------------------------------------|
B|------------------------------------------------------------|
G|------7-6-7-11-7-11-7--6-4-------4------6---7-11-4-6-7-11---|
D|--7---7-6-7-11-7-11-7--6-4-------4-x2---6---7-11-4-6-7-11---|
A|--7---5/4/5-9--5-9--5--4-2-------2------4---5-9--2-4-5-9----|
E|--5---------------------------------------------------------|

e|--------------------------------------------|
B|--------------------------------------------|
G|------7-6-7----7-6-7-------7--6--7--4--7----|
D|--7---7-6-7-7--7-6-7---7---7--6--7--4--7----|
A|--7---5-4-5-7--5-4-5---7---5--4--5--2--5----|
E|--5---------5----------5--------------------|
10.)Wreck Of The Sloop John B

e|-----------|
B|-----------|
G|-------8---|
D|---6---8---|
A|---6---6---|
E|---4-------|

e|------------------------|
B|------------------------|
G|------7-------8------8--|
D|--7---7-7-----8--7---8--|
A|--7---5-7-----6--7---6--|
E|--5-----5--------5------|

11.)Neverending Story

e|-5--5-5--5--5---------|
B|-5--5-5--5--5---------|
G|-6--5-5--6--6---------|
D|-7--5-5--7--7---2-5---|
A|-7--3-3--7--7---2-5---|
E|-5-------5--5---0-3---|

e|-5----10---5---7------|
B|-5----10---5---7------|
G|-6----10---5---7------|
D|-7----10---5---7------|
A|-7----8----3---5------|
E|-5--------------------|

e|---5--5----5----------|
B|---5--5----5----------|
G|---6--5----6----------|
D|---7--5----7-2-5------|
A|---7--3----7-2-5------|
E|---5-------5-0-3------|

12.)Thinking About Things (I Think Too Much)
e|11-7--9---5-----------|
B|11-7--9---5-----------|
G|11-7--9---5-----------|
D|11-7--9---5-----------|
A|-9-5--7---3-----------|
E|----------------------|

e|----------------------|
B|----------------------|
G|-7---9--------7-------|
D|-7---9--5-----7-------|
A|-5---7--5-----5-------|
E|--------3-------------|

e|----------------------|
B|----------------------|
G|--7--4----------------|
D|--7--4--7-------------|
A|--5--2--7-------------|
E|--------5-------------|

13.)Alone In A Crowd

Intro:
e|---------------------------------| 
B|-----1---3-------------1---------|
G|-------0---0-9---10------0-4---3-|
D|---------------------------------|
A|-----3---2---7---8-----3---2---1-|
E|---------------------------------|

C G 
Cemetery break the stone 
C F 
Mom was right, shoulda stayed at home 
F Fm C G 
Seems like all the good old days are gone 
C G 
Back and forth and side to side 
C F 
A lonely boy, a mans disguise 
F Fm C G 
Another silhouette against the sky 
Bm C Am Bm 
Overcome the obstacle of animosity 
Bm C Am G 
Take me to my old back yard, security and family 


C Dm F G 
When all is said and all is done Iım not the only one 
C Dm F G 
When all is said and all is done 


C G 
Take it all for granted, 
C F 
I donıt mind its all been handed down to me 
F Fm C G 
But ill give it back someday 
C G 
Once upon a time a tale, 
C F 
began on a television 
F Fm C G 
now I watch it slowly spin away 
Bm C Am Bm 
Overcome the obstacle of animosity 
Bm C Am G 
Take me to my old back yard, security and family 


C Dm F G 
When all is said and all is done Iım not the only one 
C Dm F G 
When all is said and all is done 

Solo: 
1 Guitar plays chorus and other plays this 
e|-----------------------------------------------------------12-13-12-10-----|
B|-12-13-12-10-15-13-12--13-13-12-13-12-13-15-15-13-10-------------------13--|
G|----------------------------------------------------12--12-----------------|
D|---------------------------------------------------------------------------|
A|---------------------------------------------------------------------------|
E|---------------------------------------------------------------------------| 

C G 
Clean the slate, turn the page 
C F 
Lonely boy has paved the way 
F Fm C G 
Mom was right, I should have stayed at home 

C Dm F G 
When all is said and all is done Iım not the only one 
C Dm F G 
When all is said and all is done Iım not the only one 
C Dm F G 
When all is said and all is done Iım not the only one 
C Dm F Fm C 
When all is said and all is done seems like all the good old days are gone 

any comments or corrections email me at Guitarguyx182@aol.com
Comments