Catch 22 - 9mm And A Three Piece Suit Chords & Tabs

 

9mm And A Three Piece Suit Chords & Tabs

Catch 22 Chords & Tabs

Version: 1 Type: Tab

9mm And A Three Piece Suit Tab

ok my third tab i was hoping someone else had this tabbed out so i could learn it 
this song uber poons but no one did so i picked it up real quick and decided to tab it

this is tuned in standard

Intro
e------------------------|
b------------------------|
g------------------------|
d------------------------| the other noises you hear it bass and drums
a---7--let it ring out---|
E---5--let it ring out---|

verse 1
e---55--xx--33--xx----------|
b---55--xx--33--xx--77--77--|
g---66--xx--44--xx--77--77--|
d---77--xx--55--xx--77--77--| x8
a---77--xx--55--xx--55--55--|
E---------------------------|

chorus
e---------------------------|
b---------------------------|
g---------------------------|
d-----------7777------------| x4
a---7---5---5555------------|
E---5---3-------------------|

part after chorus im going to call this
[ Tab from: http://www.guitartabs.cc/tabs/c/catch_22/9mm_and_a_three_piece_suit_tab.html ]
e---55-x-555-xx-----x-----xx--77-x-777-xx----x-----xx-|
b---55-x-555-xx--77-x-777-xx--77-x-777-xx-99-x-999-xx-|
g---66-x-666-xx--77-x-777-xx--88-x-888-xx-99-x-999-xx-|
d---77-x-777-xx--77-x-777-xx--99-x-999-xx-99-x-999-xx-| x2
a---77-x-777-xx--55-x-555-xx--99-x-999-xx-77-x-777-xx-|
E-----------------------------------------------------|

then you replay it from verse 1 up the the part after the chorus

e---55--xx--33--xx----------|
b---55--xx--33--xx--77--77--|
g---66--xx--44--xx--77--77--|
d---77--xx--55--xx--77--77--|  x3
a---77--xx--55--xx--55--55--|
E---------------------------|

then you do this

e---55--xx--33--xx--------|
b---55--xx--33--xx--77----|
g---66--xx--44--xx--77----|
d---77--xx--55--xx--77----|  x1
a---77--xx--55--xx--55----|
E-------------------------|

then some cool bass lines come in and you do a pick slide with distortion
then play the chorus again

and once again you wait

then once mroe you do this part


e---55--xx--33--xx----------|
b---55--xx--33--xx--77--77--|
g---66--xx--44--xx--77--77--|
d---77--xx--55--xx--77--77--|  x3
a---77--xx--55--xx--55--55--|
E---------------------------|

then you do this

e---55--xx--33--xx--------|
b---55--xx--33--xx--77----|
g---66--xx--44--xx--77----|
d---77--xx--55--xx--77----|  x1
a---77--xx--55--xx--55----|
E-------------------------|

and thats the song

you can email me at bsktcase821@aol.com if you wanna