Catastrophic - Hate Trade Chords & Tabs

 

Hate Trade Chords & Tabs

Catastrophic Chords & Tabs

Version: 1 Type: Tab 0 ratings
1 star 2 stars 3 stars 4 stars 5 stars
comments

Hate Trade Tab

   
                           CATASTROPHIC - HATE TRADE
                        From the Album - THE CLEANSING
                         Copyright: METAL BLADE 2000
                           Version 1.0 - Feb,7 2002

Transcribed By: James Williams (Inverted)

For Questions, Comments, Newest Version, or Corrections contact
 Inverted: at Inverted_one@hotmail.com

Check Out Death8699.com, With More Transcriptions On It:
 http://www.death8699.com

.  - palm mute           /  - slide up to
\  - slide down to       ~  - vibrato
h  - hammer on           b  - Bend
p  - pull off            Suffixes for bend
t  - tap                 f  - full bend    h - half bend
ph - pinched harmonic    q  - quarter bend t - tap bend
*  - see comment         ^  - Hold bend    r release bend
x  - Stuccatto           ~  - vibrato bend
,  - slight palm mute    () - ghost note, sustained note
"  - tremolo note        <> - Trill

tuning; D"G"C"F"A"D"
[ Tab from: http://www.guitartabs.cc/tabs/c/catastrophic/hate_trade_tab.html ]
Riff 1-A (Let notes ring!)
|---------------------------------------------------|
|---------------------------------------------------|
|---------------------------------------------------|GTR
|--------------2------------------------2-----------| I
|-----0--2--------------2------0--2-----------2-----|
|--0--------3-----3--0------0--------3-----3-----0--|
|                                                   |
|---------------------------------------------------|
|---------------------------------------------------|
|---------------------------------------------------|GTR
|------------------------------------------4--3--2--| II
|------------------------------------------4--3--2--|
|------------------------------------------2--1--0--|

Riff 1-B
|--------------------------------------------------|
|--------------------------------------------------|
|--------------------------------------------------|GTR
|--------------2------------------------2-----2-2--| I
|-----0--2--------------2------0--2-----------2-2--|
|--0--------3-----3--0------0--------3-----3--0-0--|
|                                             . .  |
|--------------------------------------------------|
|--------------------------------------------------|
|--------------------------------------------------|GTR
|---------------------------------------------2-2--| II
|---------------------------------------------2-2--|
|---------------------------------------------0-0--|
                                              . .
Riff 2
|-------------------------------|
|-------------------------------|
|-------------------------------|
|--2------5/4\6------3\4/3------|Repeat...
|--2------5/4\6------3\4/3------|
|--0--0-0-3/2\4--0-0-1\2/2--0-0-|
      . .        . .        . .

Riff 3-A
|-----------------------------|
|-----------------------------|
|-----------------------------|
|--2--------5------3------3\4-|Repeat...
|--2--------5------3------3\4-|
|--0----0-0-3--0-0-1--0-0-1\2-|
        . .    . .    . .

Riff 3-B (Solo riff)
|------------------------------|
|------------------------------|
|------------------------------|
|--2--------5------3------3\4--|Repeat...
|--2--------3------1------1\2--|
|--0----0-0-3--0-0-1--0-0-1\2--|
        . .    . .    . .

 I believe that's it. Listen to the song for structure.

Check out my other tabs by Hypocrisy, Grave , Obituary
six Feet Under and Catastophic.
Comments