Cat Stevens - Peace Train Chords & Tabs

 

Peace Train Chords & Tabs

Cat Stevens Chords & Tabs

Version: 1 Type: Tab 0 ratings
1 star 2 stars 3 stars 4 stars 5 stars
comments

Peace Train Tab

   
##################################################################################
# This file is the author's own work and represents their interpretation of the  #
# song. You may only use this file for private study, scholarship, or research.  #
##################################################################################

Peace Train
Written by Cat Stevens (1971)                                    

(Fret numbers, & chords in brackets are optional,  / Slash before number indicates a 
slide up from previous note)

Intro
   (C)  (G7)    (C)                        F  Csus7 F
     /   /   /   /     /   /   /   /      /    /   /   /    /   /   /   /
E |-----------------|------------------|----1---3-----5--|--3-----/5------|
B |--1--/3------/5--|-----5----3---1---|---1---1-----6---|----------------|
G |-----------------|------------------|--2---3---3/5----|--3-----/5------|
D |--2--/3------/5--|-----5----3---2---|-----------------|----------------|
A |-----------------|------------------|-----------------|----------------|
E |-----------------|------------------|-----------------|----------------|

     F       G   Am            A4  G      F       G   F
     /   /   /   /     /   /   /   /      /   /   /   /     /   /   /   /
E |-3--/5---7---8---|---------10---7---|--5-------7---5--|--5---5---------|
B |--------(8)-(10)-|--------(10)-(8)--|-(6)-----(8)-(6)-|-(6)-(6)--------|
G |-3--/5---7---9---|----------9---7---|--5-------7---5--|--5---5---------|
D |-----------------|------------------|-----------------|----------------|
A |-----------------|------------------|-----------------|----------------|
E |-----------------|------------------|-----------------|----------------|

Verse 1

Chorus
   (C)   (G7)   (C) 
E |------------------|-----------------|
B |-1-----/3----/5---|--5-----3---1----|
G |------------------|-----------------|
D |-2-----/3----/5---|--5-----3---2----|
A |------------------|-----------------|
E |------------------|-----------------|
Oh, peace train sound- ing   loud-er ,  

  F  Csus7           F     F  G   Am    (A4)(G)  F      G              F
Glide on the peace train ,(Oo-ah, ee-ah, oo-ah!)   Come on the peace train,

     (C)   (G7)  (C) 
E |------------------|-----------------|
B |---1-----/3---/5--|--5-----3---1----|
G |------------------|-----------------|
D |---2-----/3---/5--|--5-----3---2----|
A |------------------|-----------------|
E |------------------|-----------------|
Yes, peace train  ho  -ly   roll-er....


Chorus
[ Tab from: http://www.guitartabs.cc/tabs/c/cat_stevens/peace_train_tab.html ]
   (C)   (G7)   (C) 
E |------------------|-----------------|
B |-1-----/3----/5---|--5-----3---1----|
G |------------------|-----------------|
D |-2-----/3----/5---|--5-----3---2----|
A |------------------|-----------------|
E |------------------|-----------------|
Oh, peace train sound- ing   loud-er ,  


Break
     C        G7       C            G7     
E |--3-3-3----1---1-|--0---0--0-----1--|
B |--5-5-5----3---3-|--1---1--1-----3--|
G |--0-0-0----0---0-|--0---0--0-----0--|
D |--5-5-5----3---3-|--2---2--2-----3--|
A |-----------------|--3---3--3--------|
E |-----------------|------------------|

F   Csus7 F    F  G  Am (A4)(G) F      G      F 
              Oo-oo, oo,        oo-oo, oo, oo-oo   

Verse 4

Chorus
   (C)    (G7)  (C) 
E |------------------|-----------------|
B |-1-----/3----/5---|--5-----3---1----|
G |------------------|-----------------|
D |-2-----/3----/5---|--5-----3---2----|
A |------------------|-----------------|
E |------------------|-----------------|
Oh, peace train sound- ing   loud-er ,  

C)   (G7)  (C) 
E |------------------|-----------------|
B |---1-----/3---/5--|--5-----3---1----|
G |------------------|-----------------|
D |---2-----/3---/5--|--5-----3---2----|
A |------------------|-----------------|
E |------------------|-----------------|
Yes, peace train  ho  -ly   roll-er 


E |--0----------------|----------------|
     B |--1-----/3---------|--/5--5---3--1--|
     G |--0----------------|----------------|
     D |--2-----/3---------|--/5--5---3--2--|
     A |--3----------------|----------------|
     E |--3----------------|----------------|
peace train-------------------------------!

  F  G  Am    (A4)(G)  F      G                F
(Oo-ah, ee-ah, oo-ah)   Come on, now, peace train, oh, peace train

Break
     C        G7       C            G7     
E |--3-3-3----1---1-|--0---0--0-----1--|
B |--5-5-5----3---3-|--1---1--1-----3--|
G |--0-0-0----0---0-|--0---0--0-----0--|
D |--5-5-5----3---3-|--2---2--2-----3--|
A |-----------------|--3---3--3--------|
E |-----------------|------------------|

F   Csus7 F    F  G  Am    (A4)(G)   F   G     Fmaj7----------------(D9)  
              (Oo-ah, ee-ah, oo-ah)   

Coda- (Repeats & fades)
      C                 Am                Em/B              F         G
      /    /    /       /    /     /       /     /    /     /    /    /  
E |--------0----0---|--------0----0----|--------0-----0--|--1--------3----|
B |--------1----1---|--------1----1----|--------0-----0--|--1--------3----|
G |--------0----0---|--------2----2----|--------2-----2--|--2--------0----|
D |--------2----2---|--------2----2----|--------2-----2--|--3--------0----|
A |---3----3----3---|---0--------------|---2-------------|--3--------2----|
E |-----------------|------------------|-----------------|--1--------3----|

Chords:      
C          Csus7      G7            F           G           Am            A4   
332010     335353     320001        133211      320033      577555        577755

  

Comments