Cat Stevens - Moonshadow Chords & Tabs

 

Moonshadow Chords & Tabs

Cat Stevens Chords & Tabs

Version: 2 Type: Tab

Moonshadow Tab

Moonshadow-Cat Stevens

Tabbed by David Yashar.

I've looked all around the internet for this song and this seems the most correct.

Tuning: Standard
[ Tab from: http://www.guitartabs.cc/tabs/c/cat_stevens/moonshadow_tab_ver_2.html ]
|-5---5-5-----3-2--|-3-------2--------|-----3--------------|
|---3---3---3------|---3---3---3---3--|---0---0---0---3----|
|------------------|------------------|--------------------|
|-0---0---0---0----|-0---0---0--------|-0------------------|
|------------------|------------------|-------2---0--------|
|------------------|-------------2----|--------------------|


|-----0h2h---------|------------------|------0h2-------|
|---3-----3-----3--|-------0----------|------------3---|
|-----0h2h---------|-0-----0-----0--0-|---2-----------*|
|-0-------0--------|----0-----0-------|0--------------*|
|------------------|------------2--0--|----------------|
|------------------|2--3--------------|----------------|


To tell you the truth. I still can't find out how to play the chorus. If anyone knows 
to play it the right way, please email me--Davidyashar@yahoo.com

Thanks