Cat Stevens - I've Got A Thing About Seeing My Grandson Grow Old Chords & Tabs

 

I've Got A Thing About Seeing My Grandson Grow Old Chords & Tabs

Cat Stevens Chords & Tabs

Version: 1 Type: Tab 0 ratings
1 star 2 stars 3 stars 4 stars 5 stars
comments

I've Got A Thing About Seeing My Grandson Grow Old Tab

   
I'VE GOT A THING ABOUT SEEING MY GRANDSON GROW OLD
Cat Stevens

tabbed by Will K.

p = pull-off
h = hammer-on
x = dampened

Intro:

    D              A                 D              A

e|------2--------------0----------|------2--------------0----------|
B|--3-------3--1p0---------2------|--3-------3--1p0---------2------|
G|----2------------2-----2---2h4--|----2------------2-----2---2h4--|
D|--------0----------2------------|--------0----------2------------|
A|--------------------------------|--------------------------------|
E|--------------------------------|--------------------------------|


Verse:

    D              A                 D              A

e|------2--------------0----------|------2--------------0----------|
B|--3-------3--1p0---------2------|--3-------3--1p0---------2------|
G|----2------------2-----2---2h4--|----2------------2-----2---2h4--|
D|--------0----------2------------|--------0----------2------------|
A|--------------------------------|--------------------------------|
E|--------------------------------|--------------------------------|

      I buy the nicest things ...


    D              A                 D              A

e|------2--------------0----------|------2--------------0----------|
B|--3-------3--1p0---------2------|--3-------3--1p0---------2------|
G|----2------------2-----2---2h4--|----2------------2-----2---2h4--|
D|--------0----------2------------|--------0----------2------------|
A|--------------------------------|--------------------------------|
E|--------------------------------|--------------------------------|

   


    D              A                 D                          G

e|------2--------------0----------|------------2-------2-------------3-------3--|
B|--3-------3--1p0---------2------|-------3--------3---------------------0------|
G|----2------------2-----2---2h4--|----------2-------2-----------------0--------|
D|--------0----------2------------|--------------0-----------------0-------0----|
A|--------------------------------|---------------------------------------------|
E|--------------------------------|-----------------------------3---------------|

      
 
                                         

    D               A              

e|------2-------2-------0-------0--|
B|--3-------3---------------2------|
G|----2-------2-----2-----2--------|
D|--------0-----------2-------2----|
A|---------------------------------|
E|---------------------------------|

 


Chorus:

             Bm                   G   

e|-----------x---x--x----x--|-----3-----3-------3--------x-x--|
B|-----------3---3--3----x--|-----3-----3-------3--------x-x--|
G|-----------4---4--4----x--|-----4-----4-------4--------x-x--|
D|-----------4---4--4----x--|-----5-----5-------5--------x-x--|
A|-----------2---2--2----x--|-----5-----5-------5--------x-x--|
E|-----------2---2--2----x--|-----3-----3-------3--------x-x--|

    But I've got no time ...

            (The chorus chords all sound kind of dampened)


    D               A

e|--2--2--2---------x--x--x--|
B|--3--3--3---------5--5--5--|
G|--2--2--2---------6--6--6--|
D|--4--4--4---------7--7--7--|
A|--5--5--5---------7--7--7--|
E|--x--x--x---------5--5--5--|


                   Bm                          G 

e|-----------------x-------x-----x----x-----|--3----3-------3--------x-x--|
B|-----------------3-------3-----3----x-----|--3----3-------3--------x-x--|
G|-----------------4-------4-----4----x-----|--4----4-------4--------x-x--|
D|-----------------4-------4-----4----x-----|--5----5-------5--------x-x--|
A|-----------------2-------2-----2----x-----|--5----5-------5--------x-x--|
E|-----------------2-------2-----2----x-----|--3----3-------3--------x-x--|


    D                      A

e|--2--2--2--2--------------x--x--x--|
B|--3--3--3--3--------------5--5--5--|
G|--2--2--2--2--------------6--6--6--|
D|--4--4--4--4--------------7--7--7--|
A|--5--5--5--5--------------7--7--7--|
E|--x--x--x--x--------------5--5--5--|

     


                 C                  G

e|-------------------8--------8--|-------3----------3-------|
B|---------------8--------8------|--------------------------|
G|-----------------9--------9----|-------------4------------|
D|---------------------10--------|--5-------5---------------|
A|-------------------------------|-----5----------5---------|
E|-------------------------------|--------------------------|

    Because I've got a thing .......

                 (pick very lightly)


    D              A                 D              A

e|------2--------------0----------|------2--------------0----------|
B|--3-------3--1p0---------2------|--3-------3--1p0---------2------|
G|----2------------2-----2---2h4--|----2------------2-----2---2h4--|
D|--------0----------2------------|--------0----------2------------|
A|--------------------------------|--------------------------------|
E|--------------------------------|--------------------------------|
  


Verse:

    D              A                 D              A

e|------2--------------0----------|------2--------------0----------|
B|--3-------3--1p0---------2------|--3-------3--1p0---------2------|
G|----2------------2-----2---2h4--|----2------------2-----2---2h4--|
D|--------0----------2------------|--------0----------2------------|
A|--------------------------------|--------------------------------|
E|--------------------------------|--------------------------------|

  


    D              A                 D              A

e|-------------2--------------0----------|------2--------------0----------|
B|---------3-------3--1p0---------2------|--3-------3--1p0---------2------|
G|-----------2------------2-----2---2h4--|----2------------2-----2---2h4--|
D|---------------0----------2------------|--------0----------2------------|
A|---------------------------------------|--------------------------------|
E|---------------------------------------|--------------------------------|


    D              A                 D                          G

e|-----------2--------------0----------|-----------------2-------2-----------3--3-------3--|
B|-------3-------3--1p0---------2------|------------3--------3---------------0------0---0--|
G|---------2------------2-----2---2h4--|---------------2-------2-------------0----0-----0--|
D|-------------0----------2------------|-------------------0-----------------0-------0--0--|
A|-------------------------------------|---------------------------------------------------|
E|-------------------------------------|----------------------------------3----------------|


    D               A              

e|------2-------2-------0-------0----|
B|--3-------3---------------2--------|
G|----2-------2-----2-----2----------|
D|--------0-----------2-------2------|
A|-----------------------------------|
E|-----------------------------------|

    



Chorus:

             Bm                   G   

e|-----------x---x--x----x--|-----3-----3-------3--------x-x--|
B|-----------3---3--3----x--|-----3-----3-------3--------x-x--|
G|-----------4---4--4----x--|-----4-----4-------4--------x-x--|
D|-----------4---4--4----x--|-----5-----5-------5--------x-x--|
A|-----------2---2--2----x--|-----5-----5-------5--------x-x--|
E|-----------2---2--2----x--|-----3-----3-------3--------x-x--|

   


    D               A
[ Tab from: http://www.guitartabs.cc/tabs/c/cat_stevens/ive_got_a_thing_about_seeing_my_grandson_grow_old_tab.html ]
e|--2--2--2---------x--x--x--|
B|--3--3--3---------5--5--5--|
G|--2--2--2---------6--6--6--|
D|--4--4--4---------7--7--7--|
A|--5--5--5---------7--7--7--|
E|--x--x--x---------5--5-----|


                   Bm                          G 

e|-----------------x-------x-----x----x-----|--3----3-------3--------x-x--|
B|-----------------3-------3-----3----x-----|--3----3-------3--------x-x--|
G|-----------------4-------4-----4----x-----|--4----4-------4--------x-x--|
D|-----------------4-------4-----4----x-----|--5----5-------5--------x-x--|
A|-----------------2-------2-----2----x-----|--5----5-------5--------x-x--|
E|-----------------2-------2-----2----x-----|--3----3-------3--------x-x--|

  


    D                      A

e|--2--2--2--2--------------x--x--x--|
B|--3--3--3--3--------------5--5--5--|
G|--2--2--2--2--------------6--6--6--|
D|--4--4--4--4--------------7--7--7--|
A|--5--5--5--5--------------7--7--7--|
E|--x--x--x--x--------------5--5--5--|

  


                 C                  G

e|-------------------8--------8--|-------3----------3-------|
B|---------------8--------8------|--------------------------|
G|-----------------9--------9----|-------------4------------|
D|---------------------10--------|--5-------5---------------|
A|-------------------------------|-----5----------5---------|
E|-------------------------------|--------------------------|

    Because I've got a thing .......

                 (pick very lightly)


    D              A                 D              A

e|------2--------------0----------|------2--------------0--|
B|--3-------3--1p0---------2------|--3-------3--1p0-----2--|
G|----2------------2-----2---2h4--|----2------------2---2--|
D|--------0----------2------------|--------0----------2-2--|
A|--------------------------------|------------------------|
E|--------------------------------|------------------------|


Solo:

        D       Em    G          D         A         Bm    

e|----------------------------|-------------------------|
B|------3---------------------|-------------------------|
G|--2-4---4-2-----------------|----2-2h4----------------|
D|------------4-2-0---0--0-2--|--4-------4-2-0-2-4-2-0--|
A|------------------2---------|-------------------------|
E|----------------------------|-------------------------|


        D       Em    G          D                 A     D

e|----------------------------|-----------------------------|
B|------3---------------------|-----------------------------|
G|--2-4---4-2-----------------|----2-2h4p2h4----------------|
D|------------4-2-0---0--0-2--|--4-----------4-2-0-2-4-2-0--|
A|------------------2---------|-----------------------------|
E|----------------------------|-----------------------------|



    D              A                 D              A

e|------2--------------0----------|------2--------------0----------|
B|--3-------3--1p0---------2------|--3-------3--1p0---------2------|
G|----2------------2-----2---2h4--|----2------------2-----2---2h4--|
D|--------0----------2------------|--------0----------2------------|
A|--------------------------------|--------------------------------|
E|--------------------------------|--------------------------------|



    D              A                 D                          G

e|-----------2--------------0----------|-----------------2-------2-----------3--3-------3--|
B|-------3-------3--1p0---------2------|------------3--------3---------------0------0------|
G|---------2------------2-----2---2h4--|---------------2-------2-------------0----0--------|
D|-------------0----------2------------|-------------------0-----------------0-------0-----|
A|-------------------------------------|---------------------------------------------------|
E|-------------------------------------|----------------------------------3----------------


    D               A              

e|------2-------2-------0-------0----|
B|--3-------3---------------2--------|
G|----2-------2-----2-----2----------|
D|--------0-----------2-------2------|
A|-----------------------------------|
E|----------------------------------


Chorus:

             Bm                   G   

e|-----------x---x--x----x--|-----3-----3-------3--------x-x--|
B|-----------3---3--3----x--|-----3-----3-------3--------x-x--|
G|-----------4---4--4----x--|-----4-----4-------4--------x-x--|
D|-----------4---4--4----x--|-----5-----5-------5--------x-x--|
A|-----------2---2--2----x--|-----5-----5-------5--------x-x--|
E|-----------2---2--2----x--|-----3-----3-------3--------x-x--|


    D               A

e|--2--2--2---------x--x--x--|
B|--3--3--3---------5--5--5--|
G|--2--2--2---------6--6--6--|
D|--4--4--4---------7--7--7--|
A|--5--5--5---------7--7--7--|
E|--x--x--x---------5--5--5--|

     


                   Bm                          G 

e|-----------------x-------x-----x----x-----|--3----3-------3--------x-x--|
B|-----------------3-------3-----3----x-----|--3----3-------3--------x-x--|
G|-----------------4-------4-----4----x-----|--4----4-------4--------x-x--|
D|-----------------4-------4-----4----x-----|--5----5-------5--------x-x--|
A|-----------------2-------2-----2----x-----|--5----5-------5--------x-x--|
E|-----------------2-------2-----2----x-----|--3----3-------3--------x-x--|

 


    D                      A

e|--2--2--2--2--------------x--x--x--|
B|--3--3--3--3--------------5--5--5--|
G|--2--2--2--2--------------6--6--6--|
D|--4--4--4--4--------------7--7--7--|
A|--5--5--5--5--------------7--7--7--|
E|--x--x--x--x--------------5--5--5--|

     


                 C                  G

e|-------------------8--------8--|-------3----------3-------|
B|---------------8--------8------|--------------------------|
G|-----------------9--------9----|-------------4------------|
D|---------------------10--------|--5-------5---------------|
A|-------------------------------|-----5----------5---------|
E|-------------------------------|--------------------------|

    Because I've got a thing .......

                 (pick very lightly)


    D              A                 D              A

e|------2--------------0----------|------2---------------0--|
B|--3-------3--1p0---------2------|--3-------3--1p0------2--|
G|----2------------2-----2---2h4--|----2------------2----2--|
D|--------0----------2------------|--------0----------2--2--|
A|--------------------------------|-------------------------|
E|--------------------------------|-------------------------|          


Solo:

        D       Em    G          D         A         Bm    

e|----------------------------|-------------------------|
B|------3---------------------|-------------------------|
G|--2-4---4-2-----------------|----2-2h4----------------|
D|------------4-2-0---0--0-2--|--4-------4-2-0-2-4-2-0--|
A|------------------2---------|-------------------------|
E|----------------------------|-------------------------|


        D       Em    G          D                 A     D

e|----------------------------|-----------------------------|
B|------3---------------------|-----------------------------|
G|--2-4---4-2-----------------|----2-2h4p2h4----------------|
D|------------4-2-0---0--0-2--|--4-----------4-2-0-2-4-2-0--|
A|------------------2---------|-----------------------------|
E|----------------------------|-----------------------------|



Feedback - willko6 (at) yahoo.com
Comments