Cat Stevens - Father And Son Chords & Tabs

 

Father And Son Chords & Tabs

Cat Stevens Chords & Tabs

Version: 5 Type: Tab 0 ratings
1 star 2 stars 3 stars 4 stars 5 stars
comments

Father And Son Tab

   
Father and Son - Cat Stevens
Standard tuning E,A,D,G,B,E



||----------------------5-----||--------------------------|
||--0--0-0-0/1-----8----------||---0--0-0-0/1-------0--1--|
||--0--0-0-0-0---5----5------*||*--0--0-0-0-0-------------|
||--0--0-0-0-2---------------*||*--0--0-0-0-2-------------|
||----------------------------||--------------------------|
||----------------------------||--------------------------|


                                                             
-----------------------------|-----------------0------------|
--3----1-0-1---3--------0-1--|--3--------3-3-3-1------------|
--0--0---------2----2--------|--0----0---------0---0---0-2--|
--0---------------0---0------|--2--2---2-------2-----2------|
-----------------------------|--3--------------0------------|
--3------------2-------------|------------------------------|


                                                            
-----------------------------|---------------2-3-2-0-2--2--|
--0------------0------0-1-0--|---------------3-------3--1--|
--0----2-0-2---0----0--------|--2---------0--2-------------|
--0--0---------2--2----------|--2----0-2-----0-------------|
-----------------------------|--0--0-----------------------|
--3------------0-------------|-----------------------------|


                                                             
-----------------------------|-----------------0------------|
--3----1-0-1---3--------0-1--|--3--------3-3-3-1------------|
--0--0---------2----2--------|--0----0---------0---0---0-2--|
--0---------------0---0------|--2--2---2-------2-----2------|
-----------------------------|--3--------------0------------|
--3------------2-------------|------------------------------|


                                                                           
-----------------------------|----------------|----------------------5----|
--0------------0------0-1-0--|--3----------3--|--0--0-0-0/1-----8---------|
--0----2-0-2---0----0--------|--2----2---0-2--|--0--0-0-0-0---5----5------|
--0--0---------2--2----------|--0--0---0------|--0--0-0-0-2---------------|
-----------------------------|----------------|---------------------------|
--3------------0-------------|----------------|---------------------------|

[ Tab from: http://www.guitartabs.cc/tabs/c/cat_stevens/father_and_son_tab_ver_5.html ]
                                                        
----------------------5-----||-------------------7--8--|
--0--0-0-0/1-----8----------||--0--0-0-0/1-------------|
--0--0-0-0-0---5----5------*||--0--0-0-0-0-------------|
--0--0-0-0-2---------------*||--0--0-0-0-2-------------|
----------------------------||-------------------------|
----------------------------||-------------------------|


                                                                      
--10----8-7-8---10--------7-8--|--10--------10-10-10-12--------------|
--8---8---------7-------7------|--8-----8------------8---8-8---8-10--|
--7---7---------7-----7--------|--9---9---9----------9---9-9-9-------|
--9-------------9---9----------|--10-----------------10--------------|
-------------------------------|-------------------------------------|
-------------------------------|-------------------------------------|


                                                                
--7---------------7--------8-7--|--5---------------------------|
--8--8-8-10-8-10--8--8-8--------|--5----5---5-8--7-8-7-5-------|
--7--7-7----------9--9-9-9------|--5--5---5------7-------7--5--|
--0---------------9-------------|--7-------------7-------------|
--------------------------------|------------------------------|
--------------------------------|------------------------------|


                                                             
-----------------------------|-----------------0------------|
--3----1-0-1---3--------0-1--|--3--------3-3-3-1------------|
--0--0---------2----2--------|--0----0---------0---0---0-2--|
--0---------------0---0------|--2--2---2-------2-----2------|
-----------------------------|--3--------------0------------|
--3------------2-------------|------------------------------|


                                                                             
-----------------------------|----------------|----------------|
--0------------0------0-1-0--|--3----------3--|--0----------0--|
--0----2-0-2---0----0--------|--2----2---0-2--|--0----0---0----|
--0--0---------2--2----------|--0--0---0------|--0--0---0------|
-----------------------------|----------------|----------------|
--3------------0-------------|----------------|--3-------------|



------------|
--3------0--|
--2---------|
--0---------|
------------|
------------|


                           
-------------|--3--------||
--1--1/0-0---|--3--------||
--0------0---|--0--------||
--2------0---|--0--------||
--3----------|--2--------||
---------3---|--3--------||
Comments