Cat Stevens - Father And Son Solo Chords & Tabs

 

Father And Son Solo Chords & Tabs

Cat Stevens Chords & Tabs

Version: 1 Type: Tab 0 ratings
1 star 2 stars 3 stars 4 stars 5 stars
comments

Father And Son Solo Tab

I looked for this solo for a long time , and never found it, so i decided to make a tab myself.
This is my first tab ever, and i got the whole thing by ear(first time ive done it)
but it sounds 100% right. Quesitond and/or comments - misterymen999@hotmail.com. Enjoy!

NOTES: Listen carefully to the song for timing, some notes are played VERY SOFT, so you may
not hear them on the song, but i have included them in the tab(i could hear them)
so dont think it has extra notes! some are just played very soft.

Cat Stevens - Father and Son *SOLO*

E------12-----10--------10-----10--12---10-------------------
B-------------------------------------------------------12---
G-12-----------------------------------------12---14---------
D------------------------------------------------------------
A------------------------------------------------------------
E------------------------------------------------------------
[ Tab from: http://www.guitartabs.cc/tabs/c/cat_stevens/father_and_son_solo_tab.html ]
E-----------------------------------------------------------------------
B-------------12--------13p12-------------------------------------------
G-12--12--14--------12---------14---12-------12---11h12p11--------------
D----------------------------------------14-----------------14--12------
A-------------------------------------------------------------------14--
E-----------------------------------------------------------------------

E----------------------------------------------------------------------
B-3------------3-------------3----3--3--5------------------------------
G-------4--5----------4--5---------------------------2--4--------2--4--
D-------------------------------------------5---5-5-----------5--------
A----------------------------------------------------------------------
E----------------------------------------------------------------------

E------------------------------------------------------
B------------------------------------------------------
G-4--5--4----------------------4---7----5----5p4-------
D------------7---5-------5-------------------------5---
A--------------------5---------------------------------
E------------------------------------------------------
Comments