Cat Stevens - Father And Son Chords & Tabs

 

Father And Son Chords & Tabs

Cat Stevens Chords & Tabs

Version: 1 Type: Bass Tab 0 ratings
1 star 2 stars 3 stars 4 stars 5 stars
comments

Father And Son Bass Tab

Song: "Father and Son"
by CAT STEVENS
written by: Cat Stevens
tabbed by: Guido Comparato 

 Intro
G|----------------------|
D|----------------------|
A|----3---------3-------|
E|-------3---------3----|

 Verse / Chorus / Guitar Solo Part
G|--------------------------------------------|
D|--------------------------------------------|
A|---------5----3----0--------------0----5----|
E|----3-------------------3----0--------------| 
[ Tab from: http://www.guitartabs.cc/tabs/c/cat_stevens/father_and_son_btab.html ]
G|--------------------------------------------|
D|--------------------------------------------|
A|---------5----3----0--------------0---------|
E|----3-------------------3----0---------3----| 

 "...I know I have to go..."
G|-----------------|
D|-----------------|
A|----5----3-------|
E|------------3----| 

 Second Verse ("It's not time...")
G|--------------------------------------------|
D|--------------------------------------------|
A|---------5----3----0--------------0----5----|
E|----3-------------------3----0--------------| (x2)

 Very easy this one!
 Corrections, comments or anything else to comparato@fcmail.com
 
 Bye bye!

Comments