Cat Power - Good Woman Chords & Tabs

 

Good Woman Chords & Tabs

Cat Power Chords & Tabs

Version: 1 Type: Tab 0 ratings
1 star 2 stars 3 stars 4 stars 5 stars
comments

Good Woman Tab

   
-----------------------------------------------------------------------------------------
                                 GOOD WOMAN- Cat Power
-----------------------------------------------------------------------------------------
Tabbed by: 235w103
Email: MarkPopham (at) gmail.com

Tuning: Standard eBGDAE

e-----------------|---------------------------------------------------------------------|
B---4s6--4s2------|----2----------------2------------------------4------4----4--4--4----|
G-----------------|-------1-------1---------1---------1-------1------1-------1--1--1----|
D-----------------|----------1h3----------------1h3-------------------------------------|
A-----------------|--4---------------4--------------------------------------------------|
E-----------------|---------------------------------------4-----------------------------|
		  A 

e---------------------------------------------1-----------------------------------------|
B------------------------------------2---------------2----------------2-----------------|
G------3-----5------3----3---3------------3--------------------1---------1---------1----|
D---4-----4-----4--------4---4---------------------------2h3-----------------1h3--------|
A---------------------------------1--------------4-----------------4--------------------|
E---------------------------------------------------------------------------------------|
[ Tab from: http://www.guitartabs.cc/tabs/c/cat_power/good_woman_tab.html ]
e--------------------------------------------1------------------------------------------|
B------2------------------4---------------------------4---4---4---4---------------------|
G----------1---------1---------------1--------------------1---1---1-----3-----5---3-----|
D--------------1h3----------------1-----1----------------------------------4----------4-|
A---4-----------------------------------------------------------------------------------|
E-----------------------------4------------------4-------------------2------------------|

e--------------------------|--1---------------------------|
B-------------------2------|-----------2----2---2---2-----|   
G---5---5----5---------3---|-----3----------1---1---1-----| 
D---6---6----6-------------|--------4---------------------|  
A----------------1---------|------------------------------|
E--------------------------|------------------------------|
                           B                     
                                                 
ENDING:

e----1------------------------|
B--------4s6--4s2---------2---|  
G-------------------------1---|
D-------------------------3---|
A--1-----------------4----4---|
E-----------------------------|

NOTES:
Play from begininng of notation; upon reaching the end, return to point A.
This main theme repeats several times. Finally, during one repeat, jump to
the "Ending" notation upon reaching point B.

This is my first tab; if there are any problems or corrections, you can e-mail me.
Comments