Casualties - Victims Chords & Tabs

 

Victims Chords & Tabs

Casualties Chords & Tabs

Version: 1 Type: Tab 0 ratings
1 star 2 stars 3 stars 4 stars 5 stars
comments

Victims Tab

         This song is cooler then you!!! hahahaha foe reels well
  anyway here it is victims from the casualties, this is pretty 
 accurate, or at least i think it is
   i love you laura
   p  - palm mute 
    / - slide
   L  - let ring 
          Notice: they are played one and then palm muted 4x
                             
        PPPPPPPPPPP   PPPPPPP   PPPPPPP   PPPPPPP
   e------------------------------------------------------------
   b------------------------------------------------------------
   g------------------------------------------------------------
   d-12-12-12-12-12-9-9-9-9-9-5-5-5-5-5-2-2-2-2-2---------------
   a-10-10-10-10-10-7-7-7-7-7-3-3-3-3-3-0-0-0-0-0---------------
   E------------------------------------------------------------
   then they arent palm muted
   e------------------------------------------------------------
   b------------------------------------------------------------
   g------------------------------------------------------------
   d-12-12-12-12-9-9-9-9-5-5-5-5-2-2-2-2------------------------
   a-10-10-10-10-7-7-7-7-3-3-3-3-0-0-0-0------------------------
   E------------------------------------------------------------
   then...
      each one is palm muted twice then play regular
     PPPP      PPPP    PPP   PPP   PPP   PPP   PPP   PPP
   e------------------------------------------------------------
   b------------------------------------------------------------
   g------------------------------------------------------------
   d-12-12-12-12-12-12-9-9-9-9-9-9-5-5-5-5-5-5-2-2-2-2-2-2------
   a-10-10-10-10-10-10-7-7-7-7-7-7-3-3-3-3-3-3-0-0-0-0-0-0------
   E------------------------------------------------------------
       then....
   e------------------------------------------------------------
   b------------------------------------------------------------
   g-12---9---5-2-7-12---9---5-2-7------------------------------
   d-12---9---5-2-7-12---9---5-2-7------------------------------
   a-10---7---3-0-5-10---7---3-0-5------------------------------
   E------------------------------------------------------------
      L   L         L    L
    then....
 
   e------------------------------------------------------------
   b------------------------------------------------------------
   g------------------------------------------------------------
   d-12---15-12--8--9-------------------------------------------
   a-10---13-10-10-11-------------------------------------------
   E------------------------------------------------------------

   i dont no the solo, sorry 

   Thats it kids hope you injoy
 listen to the song and it will all make sense
   any questions email me  Cacaface14@aol.com  Or DAAyalalll@aol.com
[ Tab from: http://www.guitartabs.cc/tabs/c/casualties/victims_tab.html ]
Comments