Casualties - Unknown Soldier Chords & Tabs

 

Unknown Soldier Chords & Tabs

Casualties Chords & Tabs

Version: 4 Type: Tab 0 ratings
1 star 2 stars 3 stars 4 stars 5 stars
comments

Unknown Soldier Tab

The Casualties
Unknow Soldier
On The Frontline

E|------------------|
B|------------------|
G|------------------|
D|-3--5-6--5-1--1-3-|
A|------------------|
E|------------------|

E|------------------|
B|------------------|
G|------------------|
D|-3--5-6--5-1--1-3-|
A|------------------|
E|------------------|

[ Tab from: http://www.guitartabs.cc/tabs/c/casualties/unknown_soldier_tab_ver_4.html ]
E|-------------------------------|
B|-------------------------------|
G|--------5-6-7-8-7--------------|
D|-3--5-6-----------8-6-5-1-3----|
A|-------------------------------|
E|-------------------------------|

E|------------------------------|
B|------------------------------|
G|--------5-6-7-8-7-------------|
D|-3--5-6-----------8-6-5-1-3---|
A|------------------------------|
E|------------------------------|
Comments