Casualties - Unknown Soldier Chords & Tabs

 

Unknown Soldier Chords & Tabs

Casualties Chords & Tabs

Version: 3 Type: Tab 0 ratings
1 star 2 stars 3 stars 4 stars 5 stars
comments

Unknown Soldier Tab

the casualties
"unknown soldier"
tabbed by:viciouspunx7

standard tuning

intro
e---------------------------------------------------------------------------|
b---------------------------------------------------------------------------|
g---------------------------------------------------------------------------|
d-10--12-13--12-8---10------------------------------------------------------|
a-10--------------10--------------------------------------------------------|
e---------------------------------------------------------------------------|

e---------------------------------------------------------------------------|
b---------------------------------------------------------------------------|
g---------------------------------------------------------------------------|
d----10-12-13--12-8---10----------------------------------------------------|
a-10-10-------------10------------------------------------------------------|
e---------------------------------------------------------------------------|

e---------------------------------------------------------------------------|
b---------------------------------------------------------------------------|
g---------------------------------------------------------------------------|
d---10----12-13-12-8-12-15-13-12-10-----------------------------------------|
a10-10-10---------------------------10-8-10---------------------------------|
e---------------------------------------------------------------------------|

e---------------------------------------------------------------------------|
b---------------------------------------------------------------------------|
g---------------------------------------------------------------------------|
d----10----10-12-13-12-8-12-15-17-15-13-12-13-12-10-------------------------|
a-10-10-10------------------------------------------------------------------|
e---------------------------------------------------------------------------|
[ Tab from: http://www.guitartabs.cc/tabs/c/casualties/unknown_soldier_tab_ver_3.html ]
verse/chorus
e---------------------------------------------------------------------------|
b---------------------------------------------------------------------------|
g-5--5-5-5-5-5-5-5--7-8-----------------------------------------------------|
d-5--5-5-5-5-5-5-5--7-8--8-8-8-8-8-8-8-8--10--10-10-10-10-10-10-10--10------|
a-3--3-3-3-3-3-3-3--5-6--8-8-8-8-8-8-8-8--10--10-10-10-10-10-10-10--10------|
e------------------------6-6-6-6-6-6-6-6---8---8--8--8--8--8--8--8---8------|

bridge
e---------------------------------------------------------------------------|
b---------------------------------------------------------------------------|
g-5-5-5-7-8-8-12-10-7-7-7-7-8-7-7-5-3---------------------------------------|
d---------------------------------------------------------------------------|
a-3-3-3-5-6-6-10-8--5-5-5-5-6-5-5-3-1---------------------------------------|
e---------------------------------------------------------------------------|

solo
e---------------------------------------------------------------------------|
b---------------------------------------------------------------------------|
g---------------------------------------------------------------------------|
d-10~--12-13/12/13/12--10-8~-10-13/12/13/12-10------------------------------|
a---------------------------------------------------------------------------|
e---------------------------------------------------------------------------|

e---------------------------------------------------------------------------|
b---------------------------------------------------------------------------|
g------------------------12/10/12/10/12/10----------------------------------|
d-10~--12-13/12/13/12-10-------------------13-12/10~------------------------|
a---------------------------------------------------------------------------|
e---------------------------------------------------------------------------|

after solo
     pm-----------|     pm----------|     pm-----------------------|
e------------------------------------------------------------------|
b------------------------------------------------------------------|
g-5--5-5-5-5-5-5-5--7-8--8-8-8-8-8-8--7----------------------------|
d-5--5-5-5-5-5-5-5--7-8--8-8-8-8-8-8--7-8--8-8-8-8-8-8-8--8--1-----|0(x9)
a-3--3-3-3-3-3-3-3--5-6--6-6-6-6-6-6--5-8--8-8-8-8-8-8-8--8--1-----|0(x9)
e---------------------------------------6--6-6-6-6-6-6-6--6--------|8(x9)
(then play this again with no palm muting)

ending
e----------------------|
b----------------------|
g-5~--5---------5-5-5--|
d-5~---5--------5-5-5--|
e-3~------6-1-3-3-3-3--|
a----------------------|
Comments