Casualties - Unknown Soldier Chords & Tabs

 

Unknown Soldier Chords & Tabs

Casualties Chords & Tabs

Version: 2 Type: Tab 0 ratings
1 star 2 stars 3 stars 4 stars 5 stars
comments

Unknown Soldier Tab

                     -UNKNOWN SOLDIER-
                    '''''''''''''''''''
                      THE CASUALTIES
                   tabbed by: matt goolsby


e|----------------------------------------------------------------|
b|----------------------------------------------------------------|
g|-5--7-8--7------5----5--7-8--7------5----5---5-7-8-7---8-10-8-7-| intro.
d|-5---------8--5----5-----------8--5----5---5---------8----------|
a|----------------------------------------------------------------|
E|----------------------------------------------------------------|

|-------------------------------------------|
|---------------------------6-8-6-----------|
|-----------5---5-7-8-7---7-------8-7-8-7-5-| end of intro, into verse.
|-8-5-3-5-5---5---------8-------------------|
|-------------------------------------------|
|-------------------------------------------|

|-------------------------------------|
|-------------------------------------|
|-------------------------------------| this is the chord progression through
|---5-5555-7-8-8888-7----------5-5555-| the whole song, except for maybe a
|-5-3-3333-5-6-6666-5-8-8888-5-3-3333-| slight change here or there.
|-3-------------------6-6666-3--------|

          VV  guitar break after verses VV
|-----------------------------------------------------------------|
|-----------------------------------------------------------------|
|-----------------------------------------------------------------|
|--------------5/3---------------------------5/3------------------|
|---3-3333-5-6-----5-5555-6-5-3---3-3333-5-6-----5-5555-6-5-3---3-|
|-3-----------------------------3-----------------------------3---|
[ Tab from: http://www.guitartabs.cc/tabs/c/casualties/unknown_soldier_tab_ver_2.html ]
 or an octave higher...
|-----------------------------------------------------------------|
|--------------8/6---------------------------8/6------------------|
|---5-5555-7-8-----7-7777-8-7-5---5-5555-7-8-----7-7777-8-7-5---5-|
|-5-----------------------------5-----------------------------5---|
|-----------------------------------------------------------------|
|-----------------------------------------------------------------|

      VV "solo" VV
|----------------------------------------------------------------------------|
|----------------------------------------------------------8-6-8-6-8/6-------|
|-5-5555-7-8/7-8/7-5--------7-8/7-8/7-5-5-5555-7-8/7-8/7-5-------------8/7-5-|
|--------------------8-8888--------------------------------------------------|
|----------------------------------------------------------------------------|
|----------------------------------------------------------------------------|


|-----------------------------------------------------|
|-----------------------------------------------------|
|------------------------------------5----------------|  end riff
|---5-5555-7-8-8888-7----------5-----------------5555-|
|-5-3-3333-5-6-6666-5-8-8888-5-3---------6/1/3---3333-|
|-3-------------------6-6666-3------------------------|


*hint: on a slide (/), dont slide your fingers, but change to that note
without actually picking again. pick the first one, then move to the next
and let the resonance from the pick carry over for a better casualties
sound. it's easier in general, and sounds great.


  its a fairly simple song, but fun to jam to. make up solos here in there where its not 
chords. try to get into the whole feel of the song, and enjoy.
Comments