Casualties - Unknown Soldier Chords & Tabs

 

Unknown Soldier Chords & Tabs

Casualties Chords & Tabs

Version: 1 Type: Bass Tab 0 ratings
1 star 2 stars 3 stars 4 stars 5 stars
comments

Unknown Soldier Bass Tab

----------------------------------------------------------------------------
			     Unknown Soldier - Casualties
----------------------------------------------------------------------------

Tabbed By :Josh 
e-mail:scrubster2002@yahoo.com 

Tuning: standard EADG

Intro
G|-----------------------------------------------------------|
D|-----------------------------------------------------------|
A|-3----5-6---5--------3-------3----5-6---5--------3-43------|
E|--------------6----5-------3--------------6----5-----32----|

G|-----------------------------------------------------------|
D|-----------------------------------------------------------|
A|-3----5-6---5--------3-------3---5-6---5--------3----------|
E|--------------6----5-------3-------------6----5------------|

Chorus
G|--------------------------------------------------|
D|--------------------------------------------------|
A|-333333-55-666666-5----------3333-5555------------|
E|--------------------666666-3----------------------|
[ Tab from: http://www.guitartabs.cc/tabs/c/casualties/unknown_soldier_btab.html ]
Verse
G|-------------------------------------------|
D|-------------------------------------------|
A|-333333-55-666666-5----------333333--------|
E|--------------------666666-3---------------|

Interlude
G|-------------------------------------------------------------------|
D|-------------------------------------------------------------------|
A|-333333-5-666666-5-------5-333333--333333-5-666666-5------5-333333-|
E|------------------666666----------------------------666666---------|

Outro(let last note ring)
G|---------------------------------------------------------------|
D|---------------------------------------------------------------|
A|-3-3-3-5-6-6-6-5-----5-3-3-1-2-3-3-3-5-6-6-6-5-----5-3-3-1-2-3-|
E|----------------6-6-6-------------------------6-6-6------------|

Here's the order you play the song in

Intro
Chorusx2
Versex2
Chorusx2
Versex2
Chorusx2
Guitar solo#1(play verse under solox2)
Versex2
Chorusx2
Guitar solo#2(play verse under solox2)
Interlude
Chorusx8
Outro



                     Enjoy
Comments