Casualties - Two Faced Chords & Tabs

 

Two Faced Chords & Tabs

Casualties Chords & Tabs

Version: 1 Type: Tab 0 ratings
1 star 2 stars 3 stars 4 stars 5 stars
comments

Two Faced Tab

INTRO
------------------------------------------|
------------------------------------------|
---9------7------5--------7----9----------|
---9------7------5--------7----9----------|      Strum each chord 8 times
---7------5------3--------5----7----------|
------------------------------------------|

--------------|
--------------|
-12--9--7--5--|
-12--9--7--5--|  play this 5 times and on the last one play this:
-10--7--5--3--|
--------------|

-----------------------------------------------------------|
-----------------------------------------------------------|
--12--9--7--5-5-5-5-5-5-5-----7-7-7-7-7-7-7----------------|
--12--9--7--5-5-5-5-5-5-5-----7-7-7-7-7-7-7----------------|
--10--7--5--3-3-3-3-3-3-3-----5-5-5-5-5-5-5----------------|
-----------------------------------------------------------|
[ Tab from: http://www.guitartabs.cc/tabs/c/casualties/two_faced_tab.html ]
Verse
------------------------------------------------------------|
------------------------------------------------------------|
--12-12-12-12--7-7-7-7--5-5-5-5----12-12-12-----------------|
--12-12-12-12--7-7-7-7--5-5-5-5----12-12-12-----------------|
--10-10-10-10--5-5-5-5--3-3-3-3----10-10-10-----------------|
------------------------------------------------------------|

I havent figured out the solo yet, but thats pretty much the whole song.

All you hypocrites out there,
Always telling fucking lies
Always jumping on my back
every fucking chance you get

Two Faced- I Know your name
Two Faced- I know your game
Two Faced- I know your kind
Two Faced- You're full of shit

YOUR TWO FACED YOU CUNT

So you do it one more time
Spreading rumors and spreading lies
Always telling bullshit lies
Every fucking chance you can

Two faced - I know your name
Two faced - I know your game
Two faced - I know your kind
Two faced - You're full of Shit
You're two faced you cunt

So you're coming once again
Telling lies to all my friends
Always telling bullshit lies
Every fucking chance you get

Two faced - I know your name
Two faced - I know your game
Two faced - I know your kind
Two faced - You're full of Shit
You're two faced you cunt
Comments