Casualties - Static Feedback And Noise Chords & Tabs

 

Static Feedback And Noise Chords & Tabs

Casualties Chords & Tabs

Version: 1 Type: Tab 0 ratings
1 star 2 stars 3 stars 4 stars 5 stars
comments

Static Feedback And Noise Tab

   
The Casualties - Static feedback and noise 

intro/verse pt1 
e|-------------------| 
B|-------------------| 
G|-9---9---12-12-7-7-| 
D|-9-9-9-9-12-12-7-7-| 
A|-7-9-7-9-10-10-5-5-| 
E|---7---7-----------| 
[ Tab from: http://www.guitartabs.cc/tabs/c/casualties/static_feedback_and_noise_tab.html ]
verse pt2 
e|------------------------------------------| 
B|------------------------------------------| 
G|-9-9-9-9-14-14-12-12--9-9-9-9-12-12-11-11-| 
D|-9-9-9-9-14-14-12-12--9-9-9-9-12-12-11-11-| 
A|-7-7-7-7-12-12-10-10--7-7-7-7-10-10--9--9-| 
E|------------------------------------------| 

chorus 
e|-----------------| 
B|-----------------| 
G|-----------------| 
D|-4-4-4-4-7-7-9-9-| 
A|-4-4-4-4-7-7-9-9-| 
E|-2-2-2-2-5-5-7-7-|
Comments