Casualties - Sounds From The Streets Chords & Tabs

 

Sounds From The Streets Chords & Tabs

Casualties Chords & Tabs

Version: 1 Type: Tab 0 ratings
1 star 2 stars 3 stars 4 stars 5 stars
comments

Sounds From The Streets Tab

Artist: The Casualties
Album: On the front line
Song: Sounds from the Streets


Drum intro
Bass comes in, then guitar


Intro:  -------------|
        --12---12----|
        -----9----9--|
        -------------| x8
        -------------|
        -------------|

Verse:  --------------------------------------------------------------|
        --------------------------------------------------------------|
        --7--7-7--9--7----------------9--12-12-12-12--9--12-12-12-12--|
        --7--7-7--9--7--7--7-7--9--7--9--12-12-12-12--9--12-12-12-12--| x4
        --5--5-5--7--5--7--7-7--9--7--7--10-10-10-10--7--10-10-10-10--|
        ----------------5--5-5--7--5----------------------------------|
[ Tab from: http://www.guitartabs.cc/tabs/c/casualties/sounds_from_the_streets_tab.html ]
verse part 2: --------------------------------|
              --------------------------------|
              --5--5-5--4-----7--7-7-7-7-7-7--|
              --5--5-5--4--5--7--7-7-7-7-7-7--| x4
              --3--3-3--2--5--5--5-5-5-5-5-5--|
              -------------3------------------|

Bridge:  ------------------------------------------|
         ------------------------------------------|
         --9--9-9-9-9-9-9--12-12-12--14--14-14-14--|
         --9--9-9-9-9-9-9--12-12-12--14--14-14-14--| x4
         --7--9-9-9-9-9-9--10-10-10--12--12-12-12--|
         ------------------------------------------|

Repeat Verse x4
Repeat Verse Part 2 x4
Repeat Bridge x4
Repeat Intro x16
Repeat Verse x4
Repeat Verse Part 2 x4

Outro:  ---------------------------------|
        ---------------------------------|
        --14--12--9--7--9-9-9-9-9-9-9-9--|
        --14--12--9--7--9-9-9-9-9-9-9-9--| x4
        --12--10--7--5--7-7-7-7-7-7-7-7--|
        ---------------------------------|

    last time through, play the last chord 4x instead of 8x
Comments