Casualties - Riot Chords & Tabs

 

Riot Chords & Tabs

Casualties Chords & Tabs

Version: 1 Type: Tab 0 ratings
1 star 2 stars 3 stars 4 stars 5 stars
comments

Riot Tab

   
Artist: Casualties
Song: Riot!

Intro/Verse

G-4-2-4-|


e-----------------------------------|
B-----------------------------------|
G-4-4-4-4---------7-7-7-7----7-6----|
D-4-4-4-4-4-4-4-4-7-7-7-7-7--7-6----|
A-2-2-2-2-4-4-4-4-5-5-5-5-7--5-4----|
E---------2-2-2-2---------5---------|

Chorus
[ Tab from: http://www.guitartabs.cc/tabs/c/casualties/riot_tab.html ]
e--------------------------------------------------------------|
B--------------------------------------------------------------|
G-7-7-7-7-7-7-7-7-9-9-9-9-9-9-9-9-----------------5-5-5--------|
D-7-7-7-7-7-7-7-7-9-9-9-9-9-9-9-9-7-7-7-7-7-7-7-7-5-5-5-7-7-7--|
A-5-5-5-5-5-5-5-5-7-7-7-7-7-7-7-7-7-7-7-7-7-7-7-7-3-3-3-7-7-7--|
E---------------------------------5-5-5-5-5-5-5-5-------5-5-5--|

Bridge

e-------------|----------------------|-------|
B-------------|----------------------|-------|
G-4--4--4--4--|-7-7-7--6--4---x 4----|-4-2-4-|
D-4--4--4--4--|-7-7-7--6--4----------|-------|
A-2--2--2--2--|-5-5-5--4--2----------|-------|
E-------------|----------------------|-------|

Lead-last

e--------------------------------------------------|
B--------------------------------------------------|
G-7-7-7-7-7-7--9-9-9-9-9-9------------------5--7^--|
D--------------------------7-7-7-7-7-7--5-5--------|
A--------------------------------------------------|
E--------------------------------------------------|

Thats all to it.
Comments