Casualties - Punx Unite Chords & Tabs

 

Punx Unite Chords & Tabs

Casualties Chords & Tabs

Version: 1 Type: Bass Tab 0 ratings
1 star 2 stars 3 stars 4 stars 5 stars
comments

Punx Unite Bass Tab

Song title:Punx Unite

Artist: Casualties
 
Intro


G-------------------------------------

D-------------------------------------

A--9-9-9--9-0---------------------9-9-

E-------------7-7--7-0--9-9--9-0------




Verse

G-----------------------------------

D-----------------------------------
                                                
A-----------9-9-9-9--5-5-5-4-5-4----
[ Tab from: http://www.guitartabs.cc/tabs/c/casualties/punx_unite_btab.html ]
E--7-7-7-7--------------------------


Chorus

G--------------------------------------------

D--------------------------------------------

A-9-9-9-9-9-----------7-7-7-7-7--------------

E-----------7-7-7-7-7-----------9-9-9-9-9----



Outro



G--------------------------------------

D--------------------------------------

A--------5-5-5-7-7-8-7-8-7-------------

E-7-7-7---------------------------------









Comments