Casualties - Punx And Skins Chords & Tabs

 

Punx And Skins Chords & Tabs

Casualties Chords & Tabs

Version: 1 Type: Tab 0 ratings
1 star 2 stars 3 stars 4 stars 5 stars
comments

Punx And Skins Tab

Tabbed by: VampireFreak
Email:

Tuning: Standard

Title: 'Punx and Skins'
Artist: The Casualties
Tabbed by: VampireFreak

Intro
e-----------------------------------------------------------------------------|
b-----------------------------------------------------------------------------|
g-----------------------------------------------------------------------------|
d-----------------------------------------------------------------------------|
a-----------------------------------------------------------------------------|
e--5/--8--11--8--11--8--5-----------------------------------------------------|X4

Verse
e-----------------------------------------------------------------------------|
b-----------------------------------------------------------------------------|
g-----------------------------------------------------------------------------|
d-----------------------------------------------------------------------------|
a--7--10--12---14---10--12----------------------------------------------------|
e--5---8--10---12---8---10----------------------------------------------------|
[ Tab from: http://www.guitartabs.cc/tabs/c/casualties/punx_and_skins_tab.html ]
Chorus
e-----------------------------------------------------------------------------|
b-----------------------------------------------------------------------------|
g-----------------------------------------------------------------------------|
d-----------------------------------------------------------------------------|
a--14--9--12------------------------------------------------------------------|
e--12--7--10------------------------------------------------------------------|X8

Solo
e-----------------------------------------------------------------------------|
b-----------------------------------------------------------------------------|
g-----------------------------------------------------------------------------|
d-----------------------------------------------------------------------------|
a--14--141414141414--12--9(On fourth time, end with--17)---------------------|
e--12--121212121212--10--7----------------------------15----------------------|X4

Ending
e-----------------------------------------------------------------------------|
b-----------------------------------------------------------------------------|
g-----------------------------------------------------------------------------|
d-----------------------------------------------------------------------------|
a--7--10--12---14---10--12--7--77---------------------------------------------|
e--5---8--10---12---8---10--5--55---------------------------------------------|

Intro
Verse1
Chorus
Verse 1
Chorus
Solo
Verse 1
Ending

| /  slide up
| \  slide down


It took me a while to get the chorus of the song, if you've got any corrections, email me.

Oi Oi Oi for punx and skins!

*Don't stake Vampires
Comments