Casualties - Punk Rock Tragedy Chords & Tabs

 

Punk Rock Tragedy Chords & Tabs

Casualties Chords & Tabs

Version: 1 Type: Tab 0 ratings
1 star 2 stars 3 stars 4 stars 5 stars
comments

Punk Rock Tragedy Tab

The Casualties
Punk Rock Tragedy
On the Front Line
[ Tab from: http://www.guitartabs.cc/tabs/c/casualties/punk_rock_tragedy_tab.html ]
Intro
E-10-10-10-10-10-10-10-10---------5-5-55-5-5-5---------------|
B-10-10-10-10--8--8--8--8 2x than-5-5-55-3-3-3---------------|
G------------------------------------------------------------|
D------------------------------------------------------------|
A------------------------------------------------------------|
E------------------------------------------------------------|
Pre-chorus
E------------------------------------------------------------|
B------------------------------------------------------------|
G-----7-7-9--------------------------------------------------|
D-9-9-7-7-9--------------------------------------------------|
A-9-9-5-5-7--------------------------------------------------|
E-7-7--------------------------------------------------------|
"Punk rock tradgety"
E------------------------------------------------------------|
B------------------------------------------------------------|
G-------11---------------------------------------------------|
D-9-9-9-11---------------------------------------------------|
A-9-9-9--9---------------------------------------------------|
E-7-7-7------------------------------------------------------|
"Oh-oh Woah"
E------------------------------------------------------------|
B------------------------------------------------------------|
G-------9-9-9------------------------------------------------|
D-11-11-9-9-9-9-9--------------------------------------------|
A-11-11-7-7-7-9-9--------------------------------------------|
E-9---9-------7-7--------------------------------------------|

Thats Pretty much it. Play the intro in some other parts too.

The casualties kick good charlotte ass!
Comments