Casualties - Punk Rock Love Chords & Tabs

 

Punk Rock Love Chords & Tabs

Casualties Chords & Tabs

Version: 7 Type: Tab 0 ratings
1 star 2 stars 3 stars 4 stars 5 stars
comments

Punk Rock Love Tab

these are not in order
Inton#1

------------------------------------------|
------------------------0----0--0-2-0-2-0-|
----------------------2--2----------------|
----2--2---6-6---6--0-----2---------------|
--0---0--4-----4--------------------------|
------------------------------------------|

Intro#2
-----------------------------------------|
-------------------------0---0-0-2-0-2-0-|
-----------------------2---2-------------|
----2---2---6-6--7-6-0------2------------|
--0---0---4------------------------------|
-----------------------------------------|

Solo thing #1

-----------------7------9-7---------------------7-9-7-----|
--10-10-9-5-9-10---10-5-----10-10-9-5-9-10-5-10-------10--|
----------------------------------------------------------|
----------------------------------------------------------|
----------------------------------------------------------|
----------------------------------------------------------|
[ Tab from: http://www.guitartabs.cc/tabs/c/casualties/punk_rock_love_tab_ver_7.html ]
solo thing 2
-----------------------9-7-9-7-------------------------|
-10-10-9-5-9-3-2-3-2-0---------10-10-9-5-9-3-2-3-2-0-2-|
-------------------------------------------------------|
-------------------------------------------------------|
-------------------------------------------------------|
-------------------------------------------------------|

Brige to verse ( 3 or 4 times keep getting faster and faster)

-----------------------------------------|
--10-10-9-10-10-9-10-10-9-10-9-10-9-10---|
-----------------------------------------|
-----------------------------------------|
-----------------------------------------|
-----------------------------------------|

verse/chorus!

-------------------------|
-------------------------|
------9999-11111111-7777-|
-7777-9999-11111111-7777-|
-7777-7777-9 9 9 9--5555-|
-5555--------------------|

other verse
-------------------------|
-------------------------|
-7777-9999-6666-7777-----|
-7777-9999-6666-7777-----|
-5555-7777-4444-5555-----|
-------------------------|

Ending
-------------------------|
-------------------------|
------9***-11***-7***----|
-7***-9***-11***-7***----|
-7***-7***-9 ***-5***----|
-5***--------------------|

The CASUALTIES KICK ARSE!!!
Comments