Casualties - Punk Rock Love Chords & Tabs

 

Punk Rock Love Chords & Tabs

Casualties Chords & Tabs

Version: 6 Type: Tab 0 ratings
1 star 2 stars 3 stars 4 stars 5 stars
comments

Punk Rock Love Tab

   
-----------------------------------------------------------------------
			     Punk Rock Love - The Casualties
-----------------------------------------------------------------------
Tabbed by: Die Fascists
I put everything as close to the song as possible, but you'll have to listen to the song
to get the rhythms perfect.
Two Guitars, tab may seem a little confusing at first but it is accurate.

Tuning: standard
| /  slide up
| \  slide down
| h  hammer-on
| p  pull-off
| ~  vibrato
| +  hold note or chord
| x  Mute note

[intro part 1] [Guitar 1]
e|---------------------------------------------------------------------------|
B|---------------------------------------------------------------------------|
G|---------------------------------------------------------------------------|
D|------------------------------------7/9--7---7-9--11-9-11-9----------------|
A|--------7-----7-----6-6------6--5----------7-------------------------------|
E|-----5-----5-----4-------4-------------------------------------------------|

[Part 2]
e|---------------------------------------------------------------------------|
B|---------------------------------------------------------------------------|
G|---------------------6-----------------------------------------------------|
D|----------7------6-6---6----7/9--7---7-9-11-9-11-9-------------------------|
A|--------7---7--4----------5--------7---------------------------------------|
E|------5--------------------------------------------------------------------|

[Guitar 2] play under lead guitar on the second part of the intro. [riff 1]
e|---------------------------------------------------------------------------|
B|---------------------------------------------------------------------------|
G|---------------6----------7--------9---------------------------------------|
D|-------7-------6----------7--------9---------------------------------------|
A|-------7-------4+---------5+-------7+--------------------------------------|
E|-------5+------------------------------------------------------------------|

[Guitar 1] [intro part 3] [Start riff 2 under this]
e|---------------------------9----------------------------9------------------|
B|----10-10-9---9-10-12-10-----12--10-10-9---9-10---10-12---12---------------|
G|------------9------------9---------------9------9--------------------------|
D|---------------------------------------------------------------------------|
A|---------------------------------------------------------------------------|
E|---------------------------------------------------------------------------|
[ Tab from: http://www.guitartabs.cc/tabs/c/casualties/punk_rock_love_tab_ver_6.html ]
e|---------------------------------------------------------------------------|
B|----10-10-9---9-10---------------------------------------------------------|
G|------------9------9-------------------------[REPEAT]----------------------|
D|---------------------12-11-12p11-12p11-9-----------------------------------|
A|---------------------------------------------------------------------------|
E|---------------------------------------------------------------------------|



[Guitar 2] Play under the lead still. [riff 2]
e|---------------------------------------------------------------------------|
B|---------------------------------------------------------------------------|
G|- Strum -------------------6----7---9--------------------------------------|
D|-----------------------7---6----7---9--------------------------------------|
A|-----------------------7---4----5---7--------------------------------------|
E|-----------------------5---------------------------------------------------|

[Guitar 1][intro 4] Play riff 2 under this once, then continue playing riff 3
e|---------------------------------------------------------------------------|
B|----10-10-9-10-10-9-10-10-9-10p9h10p9--- repeat this --------------------|
G|---------------------------riff 2 end---riff 3 begins----------------------|
D|---------------------------------------------------------------------------|
A|---------------------------------------------------------------------------|
E|---------------------------------------------------------------------------|

[Guitar 2] [Riff 3]	    [Riff 4]
e|-----------------------|--------------------------------------------------|
B|-----------------------|--------------------------------------------------|
G|strum fast----9--11--7-|----9--6--7-6-4-----------------------------------|
D|-----------7--9--11--7-|-7--9--6--7-6-4-----------------------------------|
A|-----------7--7--9---5-|-7--7--4--5-4-2-----------------------------------|
E|-----------5-----------|-5------------------------------------------------|

SOLO
e|-------------------------------9-9----9-9----9-9-12-9-----------------------|
B|10-10-9-10-10-9-10-10-12-10-12-----12-----12----------12-10-10-9-10-10-9-10-|
G|----------------------------------------------------------------------------|
D|----------------------------------------------------------------------------|
A|----------------------------------------------------------------------------|
E|----------------------------------------------------------------------------|

Guitar 1				Guitar 2
Intro 1 x1				
Intro 2 x1				Riff 1 x1
Intro 3 x1				Riff 2 x5
Intro 4 x3				Riff 3 x3 

Verse [riff 3]x4			Verse [riff 3]x4
Verse [riff 4]x2			Verse [riff 4]x2
Riff 3 x2				riff 3 x2
Intro 4 (fast) x2			Riff 3 x2
Chorus [riff 4]x2			Chorus [riff 4]x2
Verse [riff 3]x2			Verse [riff 3]x2
Solo 				Riff 3 x2
Verse [riff 4]x2			Verse [riff 4]x2
				
Riff 3 Hit then stop every chord	Riff 3 Hit then stop every chord

Peace
===============================================================================
Comments