Casualties - Punk Rock Love Chords & Tabs

 

Punk Rock Love Chords & Tabs

Casualties Chords & Tabs

Version: 5 Type: Tab 0 ratings
1 star 2 stars 3 stars 4 stars 5 stars
comments

Punk Rock Love Tab

the casualties
punk rock love
tabbed by:viciouspunx7
[ Tab from: http://www.guitartabs.cc/tabs/c/casualties/punk_rock_love_tab_ver_5.html ]
standard tuning
solo1
e----------------7------9-7---------------------7-9-7----------------------|
b-10-10-9-5-9-10---10-5-----10-10-9-5-9-10-5-10-------10-------------------|
g--------------------------------------------------------------------------|
d--------------------------------------------------------------------------|
a--------------------------------------------------------------------------|
e--------------------------------------------------------------------------|
solo2
e-----------------------9-7-9-7--------------------------------------------|
b-10-10-9-5-9-3-2-3-2-0---------10-10-9-5-9-3-2-3-2-0-2--------------------|
g--------------------------------------------------------------------------|
d--------------------------------------------------------------------------|
a--------------------------------------------------------------------------|
e--------------------------------------------------------------------------|
Comments