Casualties - Punk Rock Love Chords & Tabs

 

Punk Rock Love Chords & Tabs

Casualties Chords & Tabs

Version: 3 Type: Tab 0 ratings
1 star 2 stars 3 stars 4 stars 5 stars
comments

Punk Rock Love Tab

Album:Early Years 1990-1995 (i think)
artist: The casualties
Song: Punk Rock Love
Tabbed By: JustnHav

(i got most of the intro from some other tabber)
Intro 1: 
e|--------------------------------------------------------| 
B|--------------------------------------------------------| 
G|--------------------------------------------------------| 
D|-----------------6-----6-----7--9--7-----7--9--11--9--7-| 
A|----7-----7---4-----4-----5-----------7-----------------| 
E|-5-----5------------------------------------------------| 

Intro 2: 
e|------------------------------------------| 
B|-10~-10--9---9--10--12--10---9--12--10--9-| 
G|-----------9---------------9--------------| 
D|------------------------------------------| 
A|------------------------------------------| 
E|------------------------------------------| 
[ Tab from: http://www.guitartabs.cc/tabs/c/casualties/punk_rock_love_tab_ver_3.html ]
Intro 3: 
e|--------------------------------------------------| 
B|-10~-p9-h10-p9-h10~-9-h10-p9-h10~-9-h10-12-10-9---| 
G|--------------------------------------------------| 
D|--------------------------------------------------| 
A|--------------------------------------------------| 
E|--------------------------------------------------| 

Verse 1: 
e|----------------------------------------| 
B|----------------------------------------| 
G|----------9-9-9-9--11-11-11-11--7-7-7-7-| 
D|-7-7-7-7--9-9-9-9--11-11-11-11--7-7-7-7-| 
A|-7-7-7-7--7-7-7-7---9--9--9--9--5-5-5-5-| 
E|-5-5-5-5--------------------------------| 

Verse 2: 
e|------------------------------------| 
B|------------------------------------| 
G|----------9-9-9-9--6-6-6-6--7-7-7-7-| 
D|-7-7-7-7--9-9-9-9--6-6-6-6--7-7-7-7-| 
A|-7-7-7-7--7-7-7-7--4-4-4-4--5-5-5-5-| 
E|-5-5-5-5----------------------------|
Comments