Casualties - Punk Rock Love Chords & Tabs

 

Punk Rock Love Chords & Tabs

Casualties Chords & Tabs

Version: 2 Type: Tab 0 ratings
1 star 2 stars 3 stars 4 stars 5 stars
comments

Punk Rock Love Tab

-------------------------------------------------------------------------------
			     Punk Rock Love - The Casualties
-------------------------------------------------------------------------------

Tabbed by: nirvana2189
Email: jolsen393@yahoo.com

Tuning: standard

INTRO
e|---------------------------------------------------------------------------|
B|---------------------------------------------------------------------------|
G|---------------------------------------------------------------------------|
D|----------------6---6----7----7-----9----11-9----repeat -------------------|
A|-----7---7--4---4----5----5-----7----7-------------------------------------|
E|--5---5--------------------------------------------------------------------|
[ Tab from: http://www.guitartabs.cc/tabs/c/casualties/punk_rock_love_tab_ver_2.html ]
Solo thing for intro
e|---------------------------------------------------------------------------|
B|--10--10--10--10--10--10--9--9--5--5--9--9---------------------------------|
G|---------------------------------------------------------------------------|
D|---------------------------------------------------------------------------|
A|---------------------------------------------------------------------------|
E|---------------------------------------------------------------------------I

e|---------------------------------------------------------------------------|
B|--10--10--10--10--10--10--9--9--12--12--10---------------------------------|
G|---------------------------------------------------------------------------|
D|---------------------------------------------------------------------------|
A|---------------------------------------------------------------------------|
E|---------------------------------------------------------------------------I

e|---------------------------------------------------------------------------|
B|--10--10--10--10--10--10--10--10--10--12--12--10---------------------------|
G|---------------------------------------------------------------------------|
D|---------------------------------------------------------------------------|
A|---------------------------------------------------------------------------|
E|---------------------------------------------------------------------------I
Comments