Casualties - Punk Rock Love Chords & Tabs

 

Punk Rock Love Chords & Tabs

Casualties Chords & Tabs

Version: 1 Type: Tab 1 rating
1 star 2 stars 3 stars 4 stars 5 stars
comments

Punk Rock Love Tab

             ----------------------------------
             The Casualties---PUNK--ROCK--LOVE
             ----------------------------------        


intro pt.1 
e--------------------------------------------------------------------------- 
B--------------------------------------------------------------------------- 
G--------------------------------------------------------------------------- 
D-----------------6------6-----7---9--7-------7--9---11---9---7------------- 
A------7----7---4-----4-----5--------------7-------------------------------- 
E---5----5------------------------------------------------------------------ 

intro pt. 2 
e--------------------------------------------------------------------------- 
B---10---10----9---------9----10----12----10---------9----12----10----9----- 
G-------------------9---------------------------9--------------------------- 
D--------------------------------------------------------------------------- 
A--------------------------------------------------------------------------- 
E--------------------------------------------------------------------------- 
[ Tab from: http://www.guitartabs.cc/tabs/c/casualties/punk_rock_love_tab.html ]
intro pt.3 
e--------------------------------------------------------------------------- 
B---9-10-9-10-9-10-9-10-9-10------12-----10-9------------------------------- 
G--------------------------------------------------------------------------- 
D--------------------------------------------------------------------------- 
A--------------------------------------------------------------------------- 
E--------------------------------------------------------------------------- 

verse/chorus pt.1 
e--------------------------------------------------------------------------- 
B--------------------------------------------------------------------------- 
G------------------9--9--9--9---11--11--11--11----9--9--9------------------- 
D-----7--7--7--7---9--9--9--9---11--11--11--11----9--9--9------------------- 
A-----7--7--7--7---7--7--7--7----9---9---9---9----7--7--7------------------- 
E-----5--5--5--5------------------------------------------------------------ 

verse/chorus pt.2 
e--------------------------------------------------------------------------- 
B--------------------------------------------------------------------------- 
G-------------------9--9--9--9----6--6--6--6----7--7--7--7------------------ 
D-----7--7--7--7----9--9--9--9----6--6--6--6----7--7--7--7------------------ 
A-----7--7--7--7----7--7--7--7----4--4--4--4----5--5--5--5------------------ 
E-----5--5--5--5------------------------------------------------------------ 



(please if u have the corect street punk guitar tab e-mail it to me)
(at guitargod3587@netscape.come or if there are any problems or questions feel)
(free to ask)
Comments