Casualties - Punk Rock Love Chords & Tabs

 

Punk Rock Love Chords & Tabs

Casualties Chords & Tabs

Version: 1 Type: Bass Tab 0 ratings
1 star 2 stars 3 stars 4 stars 5 stars
comments

Punk Rock Love Bass Tab

easy bass tab enjoy.

INTRO
G:----------------------------------------------------------------------|
D:----------------------------------------------------------------------|
A:----------------------------------------------------------------------|
E:-5~-9~-10~-12~---5-5-5-5-5--9-9-9-9-9--10-10-10-10-10--12-12-12-12-12-|
[ Tab from: http://www.guitartabs.cc/tabs/c/casualties/punk_rock_love_btab.html ]
VERSE 1/ CHORUS
G:-------------------------------------------|
D:-------------------------------------------|
A:-----------7-7-7-7-7--9-9-9-9-9--5-5-5-5-5-|
E:-5-5-5-5-5---------------------------------|

VERSE 2
G:-------------------------------------------|
D:-------------------------------------------|
A:-----------7-7-7-7-7--4-4-4-4-4--5-5-5-5-5-|
E:-5-5-5-5-5---------------------------------|

thats it now go play it
Comments