Casualties - No Room For The Youth Chords & Tabs

 

No Room For The Youth Chords & Tabs

Casualties Chords & Tabs

Version: 1 Type: Tab 0 ratings
1 star 2 stars 3 stars 4 stars 5 stars
comments

No Room For The Youth Tab

Album: Underground Army
Artist: The Casualties
Song: No Room For The Youth
Tabbed By: JustnHav

Guitar intro x2 (palm mute)
e|---------------------------------------------------------------------------|
B|---------------------------------------------------------------------------|
G|-----------------4-4-4-4-4-4-4-4-9-9-9-9-9-9-9-9---------------------------|
D|-2-2-2-2-2-2-2-2-4-4-4-4-4-4-4-4-9-9-9-9-9-9-9-9-7-7-7-7-7-7-7-7-----------|
A|-2-2-2-2-2-2-2-2-2-2-2-2-2-2-2-2-7-7-7-7-7-7-7-7-7-7-7-7-7-7-7-7-----------|
E|-0-0-0-0-0-0-0-0---------------------------------5-5-5-5-5-5-5-5-----------|

Guitar intro pt. 2 (dont palm mute) play 2x
e|---------------------------------------------------------------------------|
B|-----------------2---------2-2-2-------------------------------------------|
G|-9-9-9-4-4-4-6-4-2---9-9-9-2-2-2-4-4-4-------------------------------------|
D|-9-9-9-4-4-4-6-4-2---9-9-9-2-2-2-4-4-4-------------------------------------|
A|-7-7-7-2-2-2-4-2-0---7-7-7-0-0-0-2-2-2-------------------------------------|
E|---------------------------------------------------------------------------|

Verse x2
e|---------------------------------------------------------------------------|
B|---------------------------------------------------------------------------|
G|---------------------------------------------------------------------------|
D|-10-10-10-9-9-9----------4-4-4-7-7-7-9-9-9---------------------------------|
A|-9--9--9--9-9-9-10-10-10-4-4-4-7-7-7-9-9-9---------------------------------|
E|----------7-7-7-9--9--9--2-2-2-5-5-5-7-7-7---------------------------------|

Chorus (play 2 times) "no room for the youth....)
e|---------------------------------------------------------------------------|
B|-----------------2---------2-2-2-------------------------------------------|
G|-9-9-9-4-4-4-6-4-2---9-9-9-2-2-2-4-4-4-------------------------------------|
D|-9-9-9-4-4-4-6-4-2---9-9-9-2-2-2-4-4-4-------------------------------------|
A|-7-7-7-2-2-2-4-2-0---7-7-7-0-0-0-2-2-2-------------------------------------|
E|---------------------------------------------------------------------------|
[ Tab from: http://www.guitartabs.cc/tabs/c/casualties/no_room_for_the_youth_tab.html ]
Verse x2
e|---------------------------------------------------------------------------|
B|---------------------------------------------------------------------------|
G|---------------------------------------------------------------------------|
D|-10-10-10-9-9-9----------4-4-4-7-7-7-9-9-9---------------------------------|
A|-9--9--9--9-9-9-10-10-10-4-4-4-7-7-7-9-9-9---------------------------------|
E|----------7-7-7-9--9--9--2-2-2-5-5-5-7-7-7---------------------------------|

Chorus (play 2 times) "no room for the youth....)
e|---------------------------------------------------------------------------|
B|-----------------2---------2-2-2-------------------------------------------|
G|-9-9-9-4-4-4-6-4-2---9-9-9-2-2-2-4-4---------------------------------------|
D|-9-9-9-4-4-4-6-4-2---9-9-9-2-2-2-4-4---------------------------------------|
A|-7-7-7-2-2-2-4-2-0---7-7-7-0-0-0-2-2---------------------------------------|
E|---------------------------------------------------------------------------|

interlude (x2)
e|---------------------------------------------------------------------------|
B|---------------------------------------------------------------------------|
G|-----------------4-9-----------------------4---9---------------------------|
D|-2-2-2-2-2-2-2-2-4-9-7-7-7-2-2-2-2-2-2-2-2-4-7-9---------------------------|
A|-2-2-2-2-2-2-2-2-2-7-7-7-7-2-2-2-2-2-2-2-2-2-7-7---------------------------|
E|-0-0-0-0-0-0-0-0-----5-5-5-0-0-0-0-0-0-0-0---5-----------------------------|

Verse x2
e|---------------------------------------------------------------------------|
B|---------------------------------------------------------------------------|
G|-10-10-10------------------------------------------------------------------|
D|-10-10-10-9-9-9-10-10-10-4-4-4-7-7-7-9-9-9---------------------------------|
A|-9--9--9--9-9-9-10-10-10-4-4-4-7-7-7-9-9-9---------------------------------|
E|----------7-7-7-9--9--9--2-2-2-5-5-5-7-7-7---------------------------------|

Chorus (play 2 times) "no room for the youth....)
e|---------------------------------------------------------------------------|
B|-----------------2---------2-2-2-------------------------------------------|
G|-9-9-9-4-4-4-6-4-2---9-9-9-2-2-2-------------------------------------------|
D|-9-9-9-4-4-4-6-4-2---9-9-9-2-2-2-4-4-4-------------------------------------|
A|-7-7-7-2-2-2-4-2-0---7-7-7-0-0-0-2-2-2-------------------------------------|
E|---------------------------------------------------------------------------|
Comments