Casualties - Nightmare Chords & Tabs

 

Nightmare Chords & Tabs

Casualties Chords & Tabs

Version: 1 Type: Tab 0 ratings
1 star 2 stars 3 stars 4 stars 5 stars
comments

Nightmare Tab

The Casualties - Nightmare

Standard Tuning

Punk Rock Distortion

Intro

e--------------------------------------------------------------------|
B--------------------------------------------------------------------|
G-7--5-2-7-10--7--5-2-12--10-----------------------------------------|
D-7--5-2-7-10--7--5-2-12--10-----------------------------------------|
A-5--3-0-5-8---5--3-0-10--8------------------------------------------|
E--------------------------------------------------------------------|

Bridge

e--------------------------------------------------------------------|
B--------------------------------------------------------------------|
G-5/777-5/777-5/777-5/777-5/777-5/777-5/777-5/777--------------------|
D-5/777-5/777-5/777-5/777-5/777-5/777-5/777-5/777--------------------|
A-3/555-3/555-3/555-3/555-3/555-3/555-3/555-3/555--------------------|
E--------------------------------------------------------------------|

Chorus/Verses
[ Tab from: http://www.guitartabs.cc/tabs/c/casualties/nightmare_tab.html ]
e--------------------------------------------------------------------|
B--------------------------------------------------------------------|
G-7777--5555-2222-7777-10101010--7777--5555-2222-12121212--10101010--|
D-7777--5555-2222-7777-10101010--7777--5555-2222-12121212--10101010--|
A-5555--3333-0000-5555-8-8-8-8---5555--3333-0000-10101010--8-8-8-8---|
E--------------------------------------------------------------------|

Solo

e--------------------------------------------------------------------|
B----------------------------------------------------------------55-8|
G-5-3---3-5-3---3-5-3---3-5-5b--5-3-------------3-----xxxx-55-77-----|
D-----5-------5-------5-------------3-0--3--0-3---3-5-xxxx-----------|
A--------------------------------------------------------------------|
E--------------------------------------------------------------------|

e--------------------------------------------------------------------|
B8-55----------------------------------------------------------------|
G-----7-5------------------------------------------------------------|
D---------5-3-0------------------------------------------------------|
A--------------------------------------------------------------------|
E--------------------------------------------------------------------|

(Glassbreaking Sound FX)
Intro----------------------x2 
Bridge---------------------x1
Verse----------------------x4
Chorus---------------------x2
Verse----------------------x4
Chorus---------------------x2
Verse----------------------x4
Chorus---------------------x4
Intro----------------------x1
Solo-----------------------x1
Verse----------------------x4
Chorus---------------------x4
(Explosion Sound FX)
Comments