Casualties - Made In Nyc Chords & Tabs

 

Made In Nyc Chords & Tabs

Casualties Chords & Tabs

Version: 2 Type: Tab 0 ratings
1 star 2 stars 3 stars 4 stars 5 stars
comments

Made In Nyc Tab

Tabbed By: FluffyCow
Email: jfjaco@optonline.net

Key: / = slide 

Intro x2

e|--2-----2--4--0--4--2-----2--0--7--6--4--|   
B|-----0-----------------------------------|   
G|-----------------------------------------|
D|-----------------------------------------|
A|-----------------------------------------|
E|-----------------------------------------|


Verse1
[ Tab from: http://www.guitartabs.cc/tabs/c/casualties/made_in_nyc_tab_ver_2.html ]
e|--------------------------------------------------------------------|
B|--------------------------------------------------------------------|
G|----11--11--11--11--11--11-----9--9--9--9--9--9---13--------13------|
D|----11--11--11--11--11--11-----9--9--9--9--9--9---13----14--13--14--|
A|----9---9---9---9---9---9------7--7--7--7--7--7---11----14--11--14--|
E|--------------------------------------------------------12------12--|

Verse2 (not sure on exact rhythm here or slide)

e|-----------------------------------------------|   
B|-----------------------------------------------|   
G|-------9-9/11-------9--7--11-------------------|
D|---9---9-9/11----9--9--7--11-------------------|
A|---9---7-7/9-----9--7--5--9--------------------|
E|---7-------------7-----------------------------|

I haven't been able to figure out the rest of the tab yet, though I'm working
on it. This is my first tab, so feel 

free to send me comments on how good you think it is, even if you think it's total %#!@
Comments