Casualties - Leaders Of Today Chords & Tabs

 

Leaders Of Today Chords & Tabs

Casualties Chords & Tabs

Version: 3 Type: Tab 0 ratings
1 star 2 stars 3 stars 4 stars 5 stars
comments

Leaders Of Today Tab

   
----------------------------------------------------------------------------
			     Leaders Of Today - The Casualties
----------------------------------------------------------------------------
Tabbed by:Canadianozzy
Email:Canadianezzy@hotmail.com

Tuning:Standard eBGDAE

intro/bridge/outro
e|--------------------------------------------------------------------------|
B|--------------------------------------------------------------------------|
G|-5------3-----------------------------------------------------------------|
D|-5------3------3--------2-------------------------------------------------|
A|-7------5------3--------2-------Let ring so bass can do its thing---------|
E|---------------5--------0-------------------------------------------------|

verse
e|--------------------------------------------------------------------------|
B|--------------------------------------------------------------------------|
G|-99999-77777----------99999-----------------------------------------------|
D|-99999-77777-77777-55-99999-----------------------------------------------|
A|-77777-55555-77777-55-77777-----------------------------------------------|
E|-------------55555-33-----------------------------------------------------|
[ Tab from: http://www.guitartabs.cc/tabs/c/casualties/leaders_of_today_tab_ver_3.html ]
chorus
e|--------------------------------------------------------------------------|
B|--------------------------------------------------------------------------|
G|-------------9999-12-9999999--------------99999-1212121212----------------|
D|-99999-77777-9999-12-9999999--99999-77777-99999-1212121212----------------|
A|-99999-77777-7777-10-7777777--99999-77777-99999-1212121212----------------|
E|-77777-55555------------------77777-55555---------------------------------|

interlude
e|--------------------------------------------------------------------------|
B|--------------------------------------------------------------------------|
G|-141414-121212---------------141414---------------------------------------|
D|-141414-121212-121212-101010-141414---------------------------------------|
A|-121212-101010-121212-101010-121212---------------------------------------|
E|---------------101010-8-8-8-----------------------------------------------|

                        intro
                       verse x4
                       chorus x2
                       verse x4
                       chorus x2
                       verse x4
                       chorus x2
                    lead solo intro
                         solo
                       verse x4
                       chorus x2
                     alt. verse x4
                       chorus x2
                          end

| /  slide up
| \  slide down
| h  hammer-on
| p  pull-off
| ~  vibrato
| +  harmonic
| x  Mute note
============================================================================
Comments