Casualties - Leaders Of Today Chords & Tabs

 

Leaders Of Today Chords & Tabs

Casualties Chords & Tabs

Version: 1 Type: Tab 0 ratings
1 star 2 stars 3 stars 4 stars 5 stars
comments

Leaders Of Today Tab

   
THE CASUALTIES-LEADERS OF TODAY
Tabbed by Ben H (PunkAsPhuck)

intro/bridge/outro 
e|-------------| 
B|-------------| 
G|--9--7-------| 
D|--9--7--7--2-| 
A|--7--5--7--2-| 
E|--------5--0-| 

verse 
e|---------------| 
B|---------------| 
G|-9-9-9-7-----9-| 
D|-9-9-9-7-7-5-9-| 
A|-7-7-7-5-7-5-7-| 
E|---------5-3---| 
[ Tab from: http://www.guitartabs.cc/tabs/c/casualties/leaders_of_today_tab.html ]
chorus 
e|-------------------------------------------------------| 
B|-------------------------------------------------------| 
G|-9-9-9-------12-9-9-12-9-9--9-9-9-------9-9-9-12-12-12-| 
D|-9-9-9-9-9-9-12-9-9-12-9-9--9-9-9-9-9-9-9-9-9-12-12-12-| 
A|-7-7-7-9-9-9-10-7-7-10-7-7--7-7-7-9-9-9-7-7-7-10-10-10-| 
E|-------7-7-7----------------------7-7-7----------------| 

interlude 
e|----------------------| 
B|----------------------| 
G|-14-14-14-12-------14-| 
D|-14-14-14-12-12-10-14-| 
A|-12-12-12-10-12-10-12-| 
E|-------------10--8----|
Comments