Casualties - If The Kids Are United Chords & Tabs

 

If The Kids Are United Chords & Tabs

Casualties Chords & Tabs

Version: 1 Type: Tab 0 ratings
1 star 2 stars 3 stars 4 stars 5 stars
comments

If The Kids Are United Tab

song: if the kids are united
by: casualties

~ means ring the chord
x means staccato(dont press down on the frets,just put fingers lightly on the strings)
^ means bend the string
p means pull off

intro
E------------------------------------------------------------------------|
B------------------------------------------------------------------------|
G------------------------------------------------------------------------|
D------------------------------------------------------------------------|
A--9~~~~-9-----9~~~~-9-----xxxx-9-0-9-090-9-0-9-090-9-0-9-090-9-0-9-090--|
E--7~~~~-7-----7~~~~-7-----xxxx-7-0-7-070-7-0-7-070-7-0-7-070-7-0-7-070--|

verse
E---------------------------------------|
B---------------------------------------|
G---------------------------------------|
D-----------99999999--------------------|
A--99999999-77777777-44444444-99999999--|
E--77777777----------22222222-77777777--|

pre chorus
E--------------------------|
B--------------------------|
G--------------------------|
D--------------------------|
A--9~~~~-9-----9~~~~-9-----|
E--7~~~~-7-----7~~~~-7-----|

chorus
E--------------------------------------|
B--------------------------------------|
G--------------------------------------|
D-----------9-9-9-9--------------------|
A--9-9-9-9--7-7-7-7--4-4-4-4--9-9-9-9--|
E--7-7-7-7-----------2-2-2-2--7-7-7-7--|
[ Tab from: http://www.guitartabs.cc/tabs/c/casualties/if_the_kids_are_united_tab.html ]
post chorus
E------------------------------------------------|
B------------------------------------------------|
G------------------------------------------------|
D------------------------------------------------|
A--xxxx-9-0-9-090-9-0-9-090-9-0-9-090-9-0-9-090--|
E--xxxx-7-0-7-070-7-0-7-070-7-0-7-070-7-0-7-070--|

solo
E--------------------------------------------------------------|
B--------------------------------------------------------------|
G--8-10-8-10^10^10^10^-10-8-------------3-5-8-10-8-10^-8-------|
D---------------------------10-8-88-4-6------------------10-8--|
A--------------------------------------------------------------|
E--------------------------------------------------------------|

E---------------------------------------------------------------------------|
B---------------------------------------------------------------------------|
G--8-10-8-10^10^10^10^-10-8-------------3-5-8-10-8-10p8-10p8-10p8-10p8-11^--|
D---------------------------10-8-88-4-6-------------------------------------|
A---------------------------------------------------------------------------|
E---------------------------------------------------------------------------|

timing:
intro.........1x
verse.........2x
pre chorus....1x
chorus........2x
post chorus...1x
verse.........2x
pre chorus....1x
chorus........2x
post chorus...1x
solo..........1x
pre chorus....1x
chorus........2x
post chorus...1x

this is a really cool song. its not that fast but it sounds good with the chanting "if 
kids are united they will never be divided" so it sounds cool anyway. by the way 
didnt do this song first. sham 69 and 7 seconds did it before but i dont know who did it
first. but i think all the songs are exactly the same exept for the solo if my memory serves me 
have fun playin it.
Comments