Casualties - For The Punx Chords & Tabs

 

For The Punx Chords & Tabs

Casualties Chords & Tabs

Version: 1 Type: Tab 0 ratings
1 star 2 stars 3 stars 4 stars 5 stars
comments

For The Punx Tab

Verse
e|----------------------------------------------------------------|
B|----------------------------------------------------------------|
G|----------------------------------------------------------------|
D|------------7-7-7-7-------------5-5-----------------------------|
A|--5-5-5-5---5-5-5-5---3-3-3-3---3-3---5-------------------------|
E|--3-3-3-3-------------1-1-1-1---------3-------------------------|
Play 4 times 
[ Tab from: http://www.guitartabs.cc/tabs/c/casualties/for_the_punx_tab.html ]
CHORUS:
e|----------------------------------------------------------------|
B|----------------------------------------------------------------|
G|----------------------------------------------------------------|
D|--3---5---8---7-------------------------------------------------|
A|--1---3---6---5-------------------------------------------------|
E|----------------------------------------------------------------|
Repeat 4 times then go back to verse.
I'm not even going to try to put down the rythm. just listen to the
song to figure it out.

There is the whole song. Pretty simple.
Comments