Casualties - Die Hards Chords & Tabs

 

Die Hards Chords & Tabs

Casualties Chords & Tabs

Version: 1 Type: Bass Tab 0 ratings
1 star 2 stars 3 stars 4 stars 5 stars
comments

Die Hards Bass Tab

   
-------------------------------------------------------------------------------
			     Die Hards - Casualties
-------------------------------------------------------------------------------

Tabbed By :josh 
e-mail:scrubster2002@yahoo.com 
                       
~let ring       
                      
Tuning:Standard EADG
Intro/Verse
G|-------------|
D|-------------|
A|-55-00-55-21-|
E|-------------|

Chorus Part 1: "you know who we are, we're here till the end"
G|------------------------|
D|------------------------|
A|------------------------|
E|-1111111111-33333333333-|

Chorus Part 2: "Die hards! Die hards!"
G|-----------------------|
D|-----------------------|
A|-----------------------|
E|-4444444444-6666666666-|
[ Tab from: http://www.guitartabs.cc/tabs/c/casualties/die_hards_btab.html ]
Interlude: "We're the punx, we're the punx....."
G|-------------------------------------------------------------------------|
D|-222--------22------222--------22-----222--------22-----222--------22----|
A|-----444-22----420------444-22----420-----444-22----420-----444-22----420|
E|-------------------------------------------------------------------------|
then there's a pause and then just the guitar comes in but the 2nd time the
guitar plays the riff play this
G|--------------------|
D|-2~---------2~------|
A|----4~--2~-----420~-|
E|--------------------|

Outro
G|---------------|
D|-------22------|
A|-22-00----420~-|
E|---------------|

Here's the order u play the song in
Introx2
Versex4
Chorus part 1
Versex4
Chorus part 1
Chorus part 2
Versex4
Chorus part 1
Versex4
Chorus part 1
Chorus part 2
Versex4
Chorus part 1
Versex4
Chorus part 1
Chorus part 2
Introx2
Versex4
Chorus part 1
Chorus part 2
Interlude
Outro
Comments