Casualties - Death Toll Chords & Tabs

 

Death Toll Chords & Tabs

Casualties Chords & Tabs

Version: 1 Type: Tab 0 ratings
1 star 2 stars 3 stars 4 stars 5 stars
comments

Death Toll Tab

THE CASUALTIES-DEATH TOLL
Tabbed By Ben H (PunkAsPhuck)

intro/verse
e|--------------------|
B|--------------------|
G|11111111-5/7-7/2----|
D|11111111-5/7-7/2----|
A|-9-9-9-9-3/5-5/0----|
E|--------------------|
[ Tab from: http://www.guitartabs.cc/tabs/c/casualties/death_toll_tab.html ]
chorus
e|-----------------------------------------------------------|
B|-----------------------------------------------------------|
G|---------------9999-1111111111111111-9-1111111111111111----|
D|-99999999-7777-9999-1111111111111111-9/1111111111111111----|
A|-99999999-7777-7777--9-9-9-9-9-9-9-9-7/-9-9-9-9-9-9-9-9----|
E|-77777777-5555---------------------------------------------|

outro to chorus
e|-----------------------------|
B|-----------------------------|
G|11111111-14141414-7777-9999--|
D|11111111-14141414-7777-9999--|
A|-9-9-9-9-12121212-5555-7777--|
E|-----------------------------|

outro
e|--------------------------------------------|
B|--------------------------------------------|
G|-11-1111-11-11-9-99-9-9-6-66-6-6------------|
D|-11-1111-11-11-9-99-9-9-6-66-6-6-4-44-4-4---|
A|-9---9-9--9--9-7-77-7-7-4-44-4-4-4-44-4-4---|
E|---------------------------------2-22-2-2---|
Comments