Casualties - Criminal Class Chords & Tabs

 

Criminal Class Chords & Tabs

Casualties Chords & Tabs

Version: 2 Type: Tab 0 ratings
1 star 2 stars 3 stars 4 stars 5 stars
comments

Criminal Class Tab

THE CASUALTIES-CRIMINAL CLASS
Tabbed By Ben H (PunkAsPhuck)

intro 
e|-----------------| 
B|-----------------| 
G|------12--9--9---| 
D|-9--9-12--9--9-9-| 
A|-9--9-10--7--7-9-| 
E|-7--7----------7-| 

verse 
e|----------------------------------------| 
B|----------------------------------------| 
G|-----------12-12-9-9--9-7-9-7-9---------| 
D|-9-7-9-7-9-12-12-9-9--9-7-9-7-9-9-9-9-9-| 
A|-9-7-9-7-9-10-10-7-7--7-5-7-5-7-9-9-9-9-| 
E|-7-5-7-5-7----------------------7-7-7-7-| 
[ Tab from: http://www.guitartabs.cc/tabs/c/casualties/criminal_class_tab_ver_2.html ]
chorus 
e|-----------------------------------------------| 
B|-----------------------------------------------| 
G|-12-12-12----------9-9-9-----------------------| 
D|-12-12-12-12-12-12-9-9-9--9-9-9-12-12-12-9-9-9-| 
A|-10-10-10-12-12-12-7-7-7--9-9-9-12-12-12-9-9-9-| 
E|----------10-10-10--------7-7-7-10-10-10-7-7-7-| 

solo 
e|------------------------------------------------------| 
B|------------------------------------------------------| 
G|-----------12-12-12-11-9-9-9--9-7-9-7-9-7-7-7-6-------| 
D|-9-7-9-7-9--------------------------------------9-9-9-| 
A|------------------------------------------------------| 
E|------------------------------------------------------| 


e|------------------------------------------------------------| 
B|----12-------------12----------14-13-12-12--10^-------------| 
G|-11----14-14-14-14----11-11-11------------------------------| 
D|------------------------------------------------------------| 
A|------------------------------------------------------------| 
E|------------------------------------------------------------|
Comments