Casualties - Criminal Class Chords & Tabs

 

Criminal Class Chords & Tabs

Casualties Chords & Tabs

Version: 1 Type: Tab 0 ratings
1 star 2 stars 3 stars 4 stars 5 stars
comments

Criminal Class Tab

*=palm mute

|-----------------------------------------------------------|
|-----------------------------------------------------------|
|--------------12-12-12-12-12-12--9-9-9-9-9-9---------------|
|-9-9-9-9-9-9--12-12-12-12-12-12--9-9-9-9-9-9--9-9-9-9-9-9--|x4 listen to the song for the rythm
|-9-9-9-9-9-9--10-10-10-10-10-10--7-7-7-7-7-7--9-9-9-9-9-9--|
|-7-7-7-7-7-7----------------------------------7-7-7-7-7-7--|
  * *   * *     *  *     *  *     * *   * *    * *   * *


for just about the rest of the song
[ Tab from: http://www.guitartabs.cc/tabs/c/casualties/criminal_class_tab.html ]
|------------------------------------------------------------------------|
|------------------------------------------------------------------------|
|--------------12/13-12-12/13-12/13----9-9-9-9-9-9-----------------------|
|-9-9-9-9-9-9--12/13-12-12/13-12/13----9-9-9-9-9-9--9/10-9/10-9/10-9/10--|
|-9-9-9-9-9-9--10/11-10/11-10-10/11----7-7-7-7-7-7--9/10-9/10-9/10-9/10--|
|-7-7-7-7-7-7---------------------------------------7/8--7/8--7/8--7/8---|

i forgot about the solo type thing as i was writing this and im too lazy to do it right 
now..ill post the solo up later
Comments