Casualties - City Life Chords & Tabs

 

City Life Chords & Tabs

Casualties Chords & Tabs

Version: 1 Type: Tab 0 ratings
1 star 2 stars 3 stars 4 stars 5 stars
comments

City Life Tab

THE CASUALTIES-CITY LIFE
Tabbed by Ben H (PunkAsPhuck)

intro
e|--------------------------------------------
B|--------------------------------------------
G|--------------------------------------------
D|-----------------------7-777-5--------------
A|--------5--7-777-9-7-9---------7-777-5-7-5--
E|---7-77------------------------------------- x2

verse
e|-------------------------------|--Let this chord ring after-----------
B|-------------------------------|--the 4th time playing----------------
G|--------------------------9/7--|---9----------------------------------
D|-----------777777-999999--7/5--|---7----------------------------------
A|---999999--555555-777777-------|--------------------------------------
E|---777777----------------------|-------------------------------------- x4

[ Tab from: http://www.guitartabs.cc/tabs/c/casualties/city_life_tab.html ]
chorus
e|----------------------------------------------------
B|----------------------------------------------------
G|-------------999--7--------------------999--7-------
D|-------7-999-777--5--999---------7-999-777--5--999--
A|---999-5-777---------777-----999-5-777---------777--
E|---777-----------------------777--------------------

e|----------------------------------------------------
B|----------------------------------------------------
G|-------------999--7--------------------999--7-------
D|-------7-999-777--5--999---------7-999-777--5--999--
A|---999-5-777---------777-----999-5-777---------777--
E|---777-----------------------777--------------------

e|----------------------------------------------------
B|----------------------------------------------------
G|----------------------------------------------------
D|---9977------9977------------9977------9977---------
A|---7755-9999-7755-7777-------7755-9999-7755-7777----
E|--------7777------5555---- --------7777------5555---- x3

bridge
e|--------------------------
B|--------------------------
G|-------------999--7-------
D|-------7-999-777--5--999--
A|---999-5-777---------777--
E|---777-------------------- x4

chorus
Comments