Casualties - City Council Chords & Tabs

 

City Council Chords & Tabs

Casualties Chords & Tabs

Version: 1 Type: Tab 0 ratings
1 star 2 stars 3 stars 4 stars 5 stars
comments

City Council Tab

   
-----------------------------------------------------------------
CITY COUNCIL - The Casualties
-----------------------------------------------------------------
Tabbed by: DumbKids
Album: Die Hards
Tuning: standard

Intro:
e|---------------------------------|
B|---------------------------------|
G|99----9-----------99-------------|
D|99----9-(hold)----99-------------|
A|77----7-----------77-------------|
E|-----------------------\pickslide|

Verse:
e|----------------------|
B|----------------------|
G|9-----5-9-----7-------|
D|9-9-5-5-9-9-5-7-------|
A|7-9-5-3-7-9-5-5-------|
E|--7-3-----7-3---------|
[ Tab from: http://www.guitartabs.cc/tabs/c/casualties/city_council_tab.html ]
Chorus:
e|----------------------------------|
B|----------------------------------|
G|---------77777777-9999999999999999|
D|99999999-77777777-9999999999999999|
A|99999999-55555555-7777777777777777|
E|77777777--------------------------|

Inturlude:
e|-----------------------------------------------------------------|
B|-----------------------------------------------------------------|
G|999-7-6-5------999-7-6------999-7-6-5----999-7-6-----------------|
D|999-7-6-5-9-7--999-7-6-9-7--999-7-6-5-9--999-7-6-9-7-------------|
A|777-5-4-3-9-7--777-5-4-9-7--777-5-4-3-9--777-5-4-9-7-------------|
E|----------7-5----------7-5------------7----------7-5---\pickslide|

Order:
Intro x1
Verse x2
Chorus x2
Verse x2
Chorus x2
Verse x2
Chorus x2
Inturlude x1
Chorus x2
Verse x2
Chorus x4
Comments