Cash Johnny - Spiritual Chords & Tabs

 

Spiritual Chords & Tabs

Cash Johnny Chords & Tabs

Version: 1 Type: Tab 2 ratings
1 star 2 stars 3 stars 4 stars 5 stars
comments

Spiritual Tab

   
My first Tab.  I hope I did the song justice. 

I used  DON CZARSKI's(guitarzan7@hotmail.com) Tab and 
chords as a base for this.  I may have gone over board 
but I think its pretty accurate.


I also am disappointed that we are not allowed to post the 
lyrics because I went through and figured out which picking 
pattern is used where.  Any way I'll just post the patterns 
and I suppose you gota  e-mail me for the full deal.


                           SPIRITUAL
                          JOHNNY CASH

1st set of picking (1st)
[ Tab from: http://www.guitartabs.cc/tabs/c/cash_johnny/spiritual_tab.html ]
        A              E         F#m         D                    
                                                             
  e |---------0-----------0-----------2-----------2------
  B |-------2---2-------0---0-------2---2-------3---3----
  G |-----2-------2---1-------1---2-------2---2-------2--
  D |---2-----------2-----------4-----------0------------ 
  A |----------------------------------------------------
  E |----------------------------------------------------


2nd set of picking (2nd)

      A            E           F#m       D                    
                                                             
  e |------------------------------------------2---------
  B |--------2-----------0-------------------3---3-------
  G |------2---2-------1---1---------------2-------2-----
  D |----2-------2---2-------2-----4---4-0--------------- 
  A |--0-----------2-------------4---4-------------------
  E |--------------------------2-------------------------


       ANY QUESTIONS, COMMENTS OR CORRECTIONS E-MAIL ME AT:
                      jhoodlives@hotmail.com
Comments