Cash Johnny - I Walk The Line Corect Version Chords & Tabs

 

I Walk The Line Corect Version Chords & Tabs

Cash Johnny Chords & Tabs

Version: 1 Type: Tab 5 ratings
1 star 2 stars 3 stars 4 stars 5 stars
comments

I Walk The Line Corect Version Tab

This is defiantly the right one my 3 rd tab enjoy
E------------------------------------------------------------------------------------------
B------------------------------------------------------------------------------------------
G------------------------------------------------------------------------------------------
D---------------------------------------------------0-----0--------------------------------
A-----------------0------0------0-----0--2--4---------0-----0----4--2---0----0--------------
E----0--2--4----------0-----0---------------------------------------------0-----0----------
									 Repeat listen for timing 
E------------------------------------------------------------------------------------------
B------------------------------------------------------------------------------------------
G------------------------------------------------------------------------------------------
D------------------------------------------------------------------------------------------
A-----------2----2------------2--2--------------2-----2-----2------------------------------ 
E----4--2-------------4--2----------4--2---0------0----0-------0---------------------------


[ Tab from: http://www.guitartabs.cc/tabs/c/cash_johnny/i_walk_the_line_corect_version_tab.html ]
Comments