Cash Johnny - Hurt Chords & Tabs

 

Hurt Chords & Tabs

Cash Johnny Chords & Tabs

Version: 5 Type: Tab 3 ratings
1 star 2 stars 3 stars 4 stars 5 stars
comments

Hurt Tab

e---------------------------------------------------------------------------
B-0----------3-------------------0-----0-3-----3----------------------------
G---2----------2-------0-----------2-------2------0-------------------------
D------------------------2----2---------------------2----2------------------
A------1----------1--------3----------1------1--------3---------------------
E------0----------0--------0----------0------0--------0---------------------

e-3-3-3-3-3-3-3-3-----------------------------------------------------------
B-2---2---2---2--0-0-0-0-0-0-0-0--0---0---0---0--3-3-3-3-3-3-3-3------------
G-0---0---0---0--2---2---2---2----3-3-3-3-3-3-3-32---2---2---2--------------
D-0---0---0---0--2---2---2---2----2---2---2---2--0---0---0---0--------------
A-0---0---0---0--1---1---1---1----1---1---1---1--1---1---1---1--------------
E-3---3---3---3--3---3---3---3----3---3---3---3--3---3---3---3--------------
[ Tab from: http://www.guitartabs.cc/tabs/c/cash_johnny/hurt_tab_ver_5.html ]
e-3-3-3-3-3-3-3-3-----------------------------------------------------------
B-2---2---2---2--0-0-0-0-0-0-0-0--0---0---0---0--3-3-3-3-3-3-3-3------------
G-0---0---0---0--2---2---2---2----3-3-3-3-3-3-3-32---2---2---2--------------
D-0---0---0---0--2---2---2---2----2---2---2---2--0---0---0---0--------------
A-0---0---0---0--1---1---1---1----1---1---1---1--1---1---1---1--------------
E-3---3---3---3--3---3---3---3----3---3---3---3--3---3---3---3--------------

e-3-3-3-3-3-3-3-3-----------------------------------------------------------
B-2---2---2---2--0-0-0-0-0-0-0-0--0---0---0---0--3-3-3-3-3-3-3-3------------
G-0---0---0---0--2---2---2---2----3-3-3-3-3-3-3-32---2---2---2--------------
D-0---0---0---0--2---2---2---2----2---2---2---2--0---0---0---0--------------
A-0---0---0---0--1---1---1---1----1---1---1---1--1---1---1---1--------------
E-3---3---3---3--3---3---3---3----3---3---3---3--3---3---3---3--------------

e-3-3-3-3-3-3-3-3-----------------------------------------------------------
B-2---2---2---2--0-0-0-0-0-0-0-0--0---0---0---0--3-3-3-3-3-3-3-3------------
G-0---0---0---0--2---2---2---2----3-3-3-3-3-3-3-32---2---2---2--------------
D-0---0---0---0--2---2---2---2----2---2---2---2--0---0---0---0--------------
A-0---0---0---0--1---1---1---1----1---1---1---1--1---1---1---1--------------
E-3---3---3---3--3---3---3---3----3---3---3---3--3---3---3---3--------------

e---------------------------------------------------------------------------
B-0----------3-------------------0-----0-3-----3----------------------------
G---2----------2-------0-----------2-------2------0-------------------------
D------------------------2----2---------------------2----2------------------
A------1----------1--------3----------1------1--------3---------------------
E------0----------0--------0----------0------0--------0---------------------
Comments