Cash Johnny - Hurt Chords & Tabs

 

Hurt Chords & Tabs

Cash Johnny Chords & Tabs

Version: 4 Type: Tab 11 ratings
1 star 2 stars 3 stars 4 stars 5 stars
comments

Hurt Tab

   
##################################################################################
# This file is the author's own work and represents their interpretation of the  #
# song. You may only use this file for private study, scholarship, or research.  #
##################################################################################

Song: Hurt
Artist: Cash, Johnny
Tabbed by: Mark Fambrough
Date: 12/09/2005

Alternate chords for Chorus.  Using sustained tone with G on the 1string/3fret.
I think it gives at that contsant G Johnny plays on the piano over and over.


Chords used: 

         Am - x02210
          C - x32010
C in chorus - x32013
      Dsus2 - xx0230
          G - 320033
     A7sus4 - x02233
      Fadd9 - xx3213




Intro and played through Verse:

[ Tab from: http://www.guitartabs.cc/tabs/c/cash_johnny/hurt_tab_ver_4.html ]
        Am       C      Dsus2
   
e |-------0-------0-------0---|
B |-------1-------1-------3---|
G |-------2-------0-----2-----|
D |-----2-------2-----0-------|
A |---0-------3---------------|
E |---------------------------|




Rhythm beginning with G from last line in Verse and through Chorus. 


G                      A7sus4
                           
      D  D  D  D U         D  D  D  D U
e |---3--3--3--3-3---| |---3--3--3--3-3---|
B |---3--3--3--3-3---| |---3--3--3--3-3---|
G |---0--0--0--0-0---| |---2--2--2--2-2---|
D |---0--0--0--0-0---| |---2--2--2--2-2---|
A |---2--2--2--2-2---| |---0--0--0--0-0---|
E |---3--3--3--3-3---| |------------------|
    


Fadd9                  C               

      D  D  D  D U         D  D  D  D U
e |---3--3--3--3-3---| |---3--3--3--3-3---|
B |---1--1--1--1-1---| |---1--1--1--1-1---|
G |---2--2--2--2-2---| |---0--0--0--0-0---|
D |---3--3--3--3-3---| |---2--2--2--2-2---|
A |------------------| |---3--3--3--3-3---|
E |------------------| |------------------|
Comments